  0
SECTION
  2
HEADER
  9
$ACADVER
  1
AC1014
  9
$ACADMAINTVER
 70
     0
  9
$DWGCODEPAGE
  3
ANSI_1250
  9
$INSBASE
 10
0.0
 20
0.0
 30
0.0
  9
$EXTMIN
 10
-55.0
 20
-264.11512
 30
-62.157618
  9
$EXTMAX
 10
55.0
 20
-140.480895
 30
62.157618
  9
$LIMMIN
 10
0.0
 20
0.0
  9
$LIMMAX
 10
420.0
 20
297.0
  9
$ORTHOMODE
 70
     1
  9
$REGENMODE
 70
     1
  9
$FILLMODE
 70
     1
  9
$QTEXTMODE
 70
     0
  9
$MIRRTEXT
 70
     1
  9
$DRAGMODE
 70
     2
  9
$LTSCALE
 40
1.0
  9
$OSMODE
 70
    36
  9
$ATTMODE
 70
     1
  9
$TEXTSIZE
 40
20.0
  9
$TRACEWID
 40
1.0
  9
$TEXTSTYLE
  7
ED30
  9
$CLAYER
  8
POM
  9
$CELTYPE
  6
CONTINUOUS
  9
$CECOLOR
 62
   256
  9
$CELTSCALE
 40
3.0
  9
$DELOBJ
 70
     1
  9
$DISPSILH
 70
     0
  9
$DIMSCALE
 40
1.0
  9
$DIMASZ
 40
25.0
  9
$DIMEXO
 40
1.0
  9
$DIMDLI
 40
3.75
  9
$DIMRND
 40
0.0
  9
$DIMDLE
 40
0.0
  9
$DIMEXE
 40
1.25
  9
$DIMTP
 40
0.0
  9
$DIMTM
 40
0.0
  9
$DIMTXT
 40
30.0
  9
$DIMCEN
 40
3.0
  9
$DIMTSZ
 40
0.0
  9
$DIMTOL
 70
     0
  9
$DIMLIM
 70
     0
  9
$DIMTIH
 70
     0
  9
$DIMTOH
 70
     0
  9
$DIMSE1
 70
     0
  9
$DIMSE2
 70
     0
  9
$DIMTAD
 70
     1
  9
$DIMZIN
 70
     8
  9
$DIMBLK
  1

  9
$DIMASO
 70
     1
  9
$DIMSHO
 70
     1
  9
$DIMPOST
  1

  9
$DIMAPOST
  1

  9
$DIMALT
 70
     0
  9
$DIMALTD
 70
     4
  9
$DIMALTF
 40
0.0394
  9
$DIMLFAC
 40
1.0
  9
$DIMTOFL
 70
     1
  9
$DIMTVP
 40
0.0
  9
$DIMTIX
 70
     0
  9
$DIMSOXD
 70
     0
  9
$DIMSAH
 70
     1
  9
$DIMBLK1
  1
_OPEN
  9
$DIMBLK2
  1
_OPEN
  9
$DIMSTYLE
  2
ED30
  9
$DIMCLRD
 70
     0
  9
$DIMCLRE
 70
     0
  9
$DIMCLRT
 70
     0
  9
$DIMTFAC
 40
1.0
  9
$DIMGAP
 40
4.0
  9
$DIMJUST
 70
     0
  9
$DIMSD1
 70
     0
  9
$DIMSD2
 70
     0
  9
$DIMTOLJ
 70
     1
  9
$DIMTZIN
 70
     8
  9
$DIMALTZ
 70
     0
  9
$DIMALTTZ
 70
     0
  9
$DIMFIT
 70
     3
  9
$DIMUPT
 70
     0
  9
$DIMUNIT
 70
     2
  9
$DIMDEC
 70
     0
  9
$DIMTDEC
 70
     1
  9
$DIMALTU
 70
     8
  9
$DIMALTTD
 70
     4
  9
$DIMTXSTY
  7
ED30
  9
$DIMAUNIT
 70
     0
  9
$LUNITS
 70
     2
  9
$LUPREC
 70
     4
  9
$SKETCHINC
 40
1.0
  9
$FILLETRAD
 40
0.0
  9
$AUNITS
 70
     0
  9
$AUPREC
 70
     0
  9
$MENU
  1
.
  9
$ELEVATION
 40
0.0
  9
$PELEVATION
 40
0.0
  9
$THICKNESS
 40
0.0
  9
$LIMCHECK
 70
     0
  9
$BLIPMODE
 70
     0
  9
$CHAMFERA
 40
0.0
  9
$CHAMFERB
 40
0.0
  9
$CHAMFERC
 40
20.0
  9
$CHAMFERD
 40
0.0
  9
$SKPOLY
 70
     1
  9
$TDCREATE
 40
2451196.643769328
  9
$TDUPDATE
 40
2453310.898959248
  9
$TDINDWG
 40
0.4284243056
  9
$TDUSRTIMER
 40
0.4284243056
  9
$USRTIMER
 70
     1
  9
$ANGBASE
 50
0.0
  9
$ANGDIR
 70
     0
  9
$PDMODE
 70
     3
  9
$PDSIZE
 40
20.0
  9
$PLINEWID
 40
0.0
  9
$COORDS
 70
     1
  9
$SPLFRAME
 70
     0
  9
$SPLINETYPE
 70
     6
  9
$SPLINESEGS
 70
     8
  9
$ATTDIA
 70
     0
  9
$ATTREQ
 70
     1
  9
$HANDLING
 70
     1
  9
$HANDSEED
  5
1E27
  9
$SURFTAB1
 70
    15
  9
$SURFTAB2
 70
    15
  9
$SURFTYPE
 70
     6
  9
$SURFU
 70
     6
  9
$SURFV
 70
     6
  9
$UCSNAME
  2

  9
$UCSORG
 10
0.0
 20
0.0
 30
0.0
  9
$UCSXDIR
 10
1.0
 20
0.0
 30
0.0
  9
$UCSYDIR
 10
0.0
 20
1.0
 30
0.0
  9
$PUCSNAME
  2

  9
$PUCSORG
 10
0.0
 20
0.0
 30
0.0
  9
$PUCSXDIR
 10
1.0
 20
0.0
 30
0.0
  9
$PUCSYDIR
 10
0.0
 20
1.0
 30
0.0
  9
$USERI1
 70
     0
  9
$USERI2
 70
     0
  9
$USERI3
 70
     0
  9
$USERI4
 70
     0
  9
$USERI5
 70
     0
  9
$USERR1
 40
0.0
  9
$USERR2
 40
0.0
  9
$USERR3
 40
0.0
  9
$USERR4
 40
0.0
  9
$USERR5
 40
0.0
  9
$WORLDVIEW
 70
     1
  9
$SHADEDGE
 70
     3
  9
$SHADEDIF
 70
    70
  9
$TILEMODE
 70
     1
  9
$MAXACTVP
 70
    48
  9
$PINSBASE
 10
0.0
 20
0.0
 30
0.0
  9
$PLIMCHECK
 70
     0
  9
$PEXTMIN
 10
1.000000E+20
 20
1.000000E+20
 30
1.000000E+20
  9
$PEXTMAX
 10
-1.000000E+20
 20
-1.000000E+20
 30
-1.000000E+20
  9
$PLIMMIN
 10
0.0
 20
0.0
  9
$PLIMMAX
 10
420.0
 20
297.0
  9
$UNITMODE
 70
     0
  9
$VISRETAIN
 70
     1
  9
$PLINEGEN
 70
     0
  9
$PSLTSCALE
 70
     0
  9
$TREEDEPTH
 70
  3020
  9
$PICKSTYLE
 70
     1
  9
$CMLSTYLE
  2
STANDARD
  9
$CMLJUST
 70
     0
  9
$CMLSCALE
 40
1.0
  9
$PROXYGRAPHICS
 70
     1
  9
$MEASUREMENT
 70
     1
  0
ENDSEC
  0
SECTION
  2
CLASSES
  0
CLASS
  1
DICTIONARYVAR
  2
AcDbDictionaryVar
  3
"AutoCAD"
 90
        0
280
     0
281
     0
  0
CLASS
  1
LWPOLYLINE
  2
AcDbPolyline
  3
"AutoCAD"
 90
        0
280
     0
281
     1
  0
CLASS
  1
HATCH
  2
AcDbHatch
  3
"ACAD_SEDONA"
 90
        0
280
     0
281
     1
  0
ENDSEC
  0
SECTION
  2
TABLES
  0
TABLE
  2
VPORT
  5
8
100
AcDbSymbolTable
 70
     2
  0
VPORT
  5
1E26
100
AcDbSymbolTableRecord
100
AcDbViewportTableRecord
  2
*ACTIVE
 70
     0
 10
0.0
 20
0.0
 11
1.0
 21
1.0
 12
-70.626894
 22
-58.465776
 13
0.0
 23
0.0
 14
10.0
 24
10.0
 15
10.0
 25
10.0
 16
1.476408
 26
-3.96281
 36
1.371094
 17
0.0
 27
0.0
 37
0.0
 40
167.886385
 41
1.650104
 42
50.0
 43
0.0
 44
0.0
 50
0.0
 51
0.0
 71
     0
 72
   100
 73
     1
 74
     1
 75
     0
 76
     0
 77
     0
 78
     0
  0
ENDTAB
  0
TABLE
  2
LTYPE
  5
5
100
AcDbSymbolTable
 70
     3
  0
LTYPE
  5
14
100
AcDbSymbolTableRecord
100
AcDbLinetypeTableRecord
  2
BYBLOCK
 70
     0
  3

 72
    65
 73
     0
 40
0.0
  0
LTYPE
  5
15
100
AcDbSymbolTableRecord
100
AcDbLinetypeTableRecord
  2
BYLAYER
 70
     0
  3

 72
    65
 73
     0
 40
0.0
  0
LTYPE
  5
16
100
AcDbSymbolTableRecord
100
AcDbLinetypeTableRecord
  2
CONTINUOUS
 70
     0
  3
Solid line
 72
    65
 73
     0
 40
0.0
  0
LTYPE
  5
7F
100
AcDbSymbolTableRecord
100
AcDbLinetypeTableRecord
  2
DASHDOT
 70
     0
  3
Dash dot __ . __ . __ . __ . __ . __ . __ . __
 72
    65
 73
     4
 40
25.4
 49
12.7
 74
     0
 49
-6.35
 74
     0
 49
0.0
 74
     0
 49
-6.35
 74
     0
  0
LTYPE
  5
80
100
AcDbSymbolTableRecord
100
AcDbLinetypeTableRecord
  2
DASHED
 70
     0
  3
Dashed __ __ __ __ __ __ __ __ __ __ __ __ __ _
 72
    65
 73
     2
 40
19.05
 49
12.7
 74
     0
 49
-6.35
 74
     0
  0
ENDTAB
  0
TABLE
  2
LAYER
  5
2
100
AcDbSymbolTable
 70
     7
  0
LAYER
  5
F
100
AcDbSymbolTableRecord
100
AcDbLayerTableRecord
  2
0
 70
     0
 62
     7
  6
CONTINUOUS
  0
LAYER
  5
9E
100
AcDbSymbolTableRecord
100
AcDbLayerTableRecord
  2
DEFPOINTS
 70
     0
 62
     7
  6
CONTINUOUS
  0
LAYER
  5
377
100
AcDbSymbolTableRecord
100
AcDbLayerTableRecord
  2
V0-OBRYS
 70
     0
 62
    90
  6
CONTINUOUS
  0
LAYER
  5
378
100
AcDbSymbolTableRecord
100
AcDbLayerTableRecord
  2
V0-VYPLNE
 70
     0
 62
    63
  6
DASHDOT
  0
LAYER
  5
37A
100
AcDbSymbolTableRecord
100
AcDbLayerTableRecord
  2
V0-NAZVY
 70
     0
 62
   210
  6
CONTINUOUS
  0
LAYER
  5
559
100
AcDbSymbolTableRecord
100
AcDbLayerTableRecord
  2
V0-ZBYTEK
 70
     0
 62
    51
  6
CONTINUOUS
  0
LAYER
  5
1B0C
100
AcDbSymbolTableRecord
100
AcDbLayerTableRecord
  2
POM
 70
     0
 62
    30
  6
CONTINUOUS
  0
ENDTAB
  0
TABLE
  2
STYLE
  5
3
100
AcDbSymbolTable
 70
     5
  0
STYLE
  5
10
100
AcDbSymbolTableRecord
100
AcDbTextStyleTableRecord
  2
STANDARD
 70
     0
 40
7.0
 41
1.0
 50
0.0
 71
     0
 42
20.0
  3
ISOCP.shx
  4

  0
STYLE
  5
331
100
AcDbSymbolTableRecord
100
AcDbTextStyleTableRecord
  2
ED30
 70
     0
 40
30.0
 41
1.0
 50
0.0
 71
     0
 42
2.5
  3
ISOCP.shx
  4

  0
STYLE
  5
5D2
100
AcDbSymbolTableRecord
100
AcDbTextStyleTableRecord
  2
ED20
 70
     0
 40
20.0
 41
1.0
 50
0.0
 71
     0
 42
20.0
  3
isocp.shx
  4

  0
STYLE
  5
64F
100
AcDbSymbolTableRecord
100
AcDbTextStyleTableRecord
  2
ED40
 70
     0
 40
40.0
 41
1.0
 50
0.0
 71
     0
 42
20.0
  3
isocp.shx
  4

  0
STYLE
  5
650
100
AcDbSymbolTableRecord
100
AcDbTextStyleTableRecord
  2
ED10
 70
     0
 40
10.0
 41
1.0
 50
0.0
 71
     0
 42
20.0
  3
isocp.shx
  4

  0
ENDTAB
  0
TABLE
  2
VIEW
  5
6
100
AcDbSymbolTable
 70
     0
  0
ENDTAB
  0
TABLE
  2
UCS
  5
7
100
AcDbSymbolTable
 70
     0
  0
ENDTAB
  0
TABLE
  2
APPID
  5
9
100
AcDbSymbolTable
 70
     3
  0
APPID
  5
11
100
AcDbSymbolTableRecord
100
AcDbRegAppTableRecord
  2
ACAD
 70
     0
  0
APPID
  5
FAA
100
AcDbSymbolTableRecord
100
AcDbRegAppTableRecord
  2
CONTENTBLOCKICON
 70
     0
  0
APPID
  5
FAB
100
AcDbSymbolTableRecord
100
AcDbRegAppTableRecord
  2
CONTENTBLOCKDESCRIPTION
 70
     0
  0
ENDTAB
  0
TABLE
  2
DIMSTYLE
  5
A
100
AcDbSymbolTable
 70
     5
  0
DIMSTYLE
105
1D
100
AcDbSymbolTableRecord
100
AcDbDimStyleTableRecord
  2
STANDARD
 70
     0
  3

  4

  5

  6
_OPEN
  7
_OPEN
 40
0.0
 41
15.0
 42
0.625
 43
3.75
 44
1.25
 45
0.0
 46
0.0
 47
0.0
 48
0.0
140
15.0
141
2.5
142
0.0
143
0.0394
144
1.0
145
0.0
146
1.0
147
3.0
 71
     0
 72
     0
 73
     0
 74
     0
 75
     0
 76
     0
 77
     1
 78
     8
170
     0
171
     4
172
     1
173
     1
174
     0
175
     0
176
     0
177
     0
178
     0
270
     2
271
     0
272
     1
273
     8
274
     4
340
331
275
     0
280
     0
281
     0
282
     0
283
     1
284
     8
285
     0
286
     0
287
     3
288
     0
  0
DIMSTYLE
105
397
100
AcDbSymbolTableRecord
100
AcDbDimStyleTableRecord
  2
ED40
 70
     0
  3

  4

  5

  6
_OPEN
  7
_OPEN
 40
0.0
 41
35.0
 42
1.0
 43
3.75
 44
1.25
 45
0.0
 46
0.0
 47
0.0
 48
0.0
140
40.0
141
3.0
142
0.0
143
0.0394
144
1.0
145
0.0
146
1.0
147
4.0
 71
     0
 72
     0
 73
     0
 74
     0
 75
     0
 76
     0
 77
     1
 78
     8
170
     0
171
     4
172
     1
173
     1
174
     0
175
     0
176
     0
177
     0
178
     0
270
     2
271
     0
272
     1
273
     8
274
     4
340
64F
275
     0
280
     0
281
     0
282
     0
283
     1
284
     8
285
     0
286
     0
287
     3
288
     0
  0
DIMSTYLE
105
656
100
AcDbSymbolTableRecord
100
AcDbDimStyleTableRecord
  2
ED30
 70
     0
  3

  4

  5

  6
_OPEN
  7
_OPEN
 40
0.0
 41
25.0
 42
1.0
 43
3.75
 44
1.25
 45
0.0
 46
0.0
 47
0.0
 48
0.0
140
30.0
141
3.0
142
0.0
143
0.0394
144
1.0
145
0.0
146
1.0
147
4.0
 71
     0
 72
     0
 73
     0
 74
     0
 75
     0
 76
     0
 77
     1
 78
     8
170
     0
171
     4
172
     1
173
     1
174
     0
175
     0
176
     0
177
     0
178
     0
270
     2
271
     0
272
     1
273
     8
274
     4
340
331
275
     0
280
     0
281
     0
282
     0
283
     1
284
     8
285
     0
286
     0
287
     3
288
     0
  0
DIMSTYLE
105
657
100
AcDbSymbolTableRecord
100
AcDbDimStyleTableRecord
  2
ED20
 70
     0
  3

  4

  5

  6
_OPEN
  7
_OPEN
 40
0.0
 41
20.0
 42
1.0
 43
3.75
 44
1.25
 45
0.0
 46
0.0
 47
0.0
 48
0.0
140
20.0
141
3.0
142
0.0
143
0.0394
144
1.0
145
0.0
146
1.0
147
2.0
 71
     0
 72
     0
 73
     0
 74
     0
 75
     0
 76
     0
 77
     1
 78
     8
170
     0
171
     4
172
     1
173
     1
174
     0
175
     0
176
     0
177
     0
178
     0
270
     2
271
     0
272
     1
273
     8
274
     4
340
5D2
275
     0
280
     0
281
     0
282
     0
283
     1
284
     8
285
     0
286
     0
287
     3
288
     0
  0
DIMSTYLE
105
658
100
AcDbSymbolTableRecord
100
AcDbDimStyleTableRecord
  2
ED10
 70
     0
  3

  4

  5

  6
_OPEN
  7
_OPEN
 40
0.0
 41
15.0
 42
1.0
 43
3.75
 44
1.25
 45
0.0
 46
0.0
 47
0.0
 48
0.0
140
10.0
141
3.0
142
0.0
143
0.0394
144
1.0
145
0.0
146
1.0
147
1.5
 71
     0
 72
     0
 73
     0
 74
     0
 75
     0
 76
     0
 77
     1
 78
     8
170
     0
171
     4
172
     1
173
     1
174
     0
175
     0
176
     0
177
     0
178
     0
270
     2
271
     0
272
     1
273
     8
274
     4
340
5D2
275
     0
280
     0
281
     0
282
     0
283
     1
284
     8
285
     0
286
     0
287
     3
288
     0
  0
ENDTAB
  0
TABLE
  2
BLOCK_RECORD
  5
1
100
AcDbSymbolTable
 70
    16
  0
BLOCK_RECORD
  5
1A
100
AcDbSymbolTableRecord
100
AcDbBlockTableRecord
  2
*MODEL_SPACE
  0
BLOCK_RECORD
  5
17
100
AcDbSymbolTableRecord
100
AcDbBlockTableRecord
  2
*PAPER_SPACE
  0
BLOCK_RECORD
  5
90
100
AcDbSymbolTableRecord
100
AcDbBlockTableRecord
  2
_OPEN
  0
BLOCK_RECORD
  5
17E3
100
AcDbSymbolTableRecord
100
AcDbBlockTableRecord
  2
AZAVER
1001
CONTENTBLOCKICON
1071
        0
1004
2800000020000000200000000100040000000000000200000000000000000000000000000000000000000000000080000080000000808000800000008000800080800000C0C0C000808080000000FF0000FF000000FFFF00FF000000FF00FF00FFFF0000FFFFFF00FFFFFFFFFFAAAAAAAAAAAFFFFFFFFFFF
1004
FFFFFFFFFFAFFFFFFFFFFAFFFFFFFFFFFFFFFFFFFFAFFFFFFFFFFAFFFFFFFFFFFFFFFFFFFFAFFFFFFFFFFAFFFFFFFFFFFFFFFFFFFFAFFFFFFFFFFAFFFFFFFFFFFFFFFFFFFFAFFFFFFFFFFAFFFFFFFFFFFFFFFFFFFFAFFFFFFFFFFAFFFFFFFFFFFFFFFFFFFFAFFFFFFFFFFAFFFFFFFFFFFFFFFFFFFFAFFFFF
1004
FFFFFAFFFFFFFFFFFFFFFFFFFFAFFFFFFFFFFAFFFFFFFFFFFFFFFFFFAAAFFFFFFFFFFAAFFFFFFFFFFFFFFFFFAFAFFFFFFFFFFAAFFFFFFFFFFFFFFFFFAFAFFFFFFFFFFAAFFFFFFFFFFFFFFFFFAFAAAAAAAAAAAAAFFFFFFFFFFFFFFFFFAFFFFFFFFFFFFFAFFFFFFFFFFFFFFFFFAFFFFFFFFFFFFFAFFFFFFFFF
1004
FFFFFFFFAFFFFFFFFFFFFFAFFFFFFFFFFFFFFFFFAFFFFFFFFFFFFFAFFFFFFFFFFFFFFFFFAFFFFFFFFFFFFFAFFFFFFFFFFFFFFFFFAFFFFFFFFFFFFFAFFFFFFFFFFFFFFFFFAFAAAAAAAAAAAAAFFFFFFFFFFFFFFFFFAFAFFFFFFFFFFAAFFFFFFFFFFFFFFFFFAAAAAAAAAAAAAAAFFFFFFFFFFFFFFFFFFFAFFFFF
1004
FFFFFAFFFFFFFFFFFFFFFFFFFFAFFFFFFFFFFAFFFFFFFFFFFFFFFFFFFFAFFFFFFFFFFAFFFFFFFFFFFFFFFFFFFFAFFFFFFFFFFAFFFFFFFFFFFFFFFFFFFFAFFFFFFFFFFAFFFFFFFFFFFFFFFFFFFFAFFFFFFFFFFAFFFFFFFFFFFFFFFFFFFFAFFFFFFFFFFAFFFFFFFFFFFFFFFFFFFFAFFFFFFFFFFAFFFFFFFFFF
1004
FFFFFFFFFFAAAAAAAAAAAFFFFFFFFFFF
  0
BLOCK_RECORD
  5
1877
100
AcDbSymbolTableRecord
100
AcDbBlockTableRecord
  2
AZAVER-P
1001
CONTENTBLOCKICON
1071
        0
1004
2800000020000000200000000100040000000000000200000000000000000000000000000000000000000000000080000080000000808000800000008000800080800000C0C0C000808080000000FF0000FF000000FFFF00FF000000FF00FF00FFFF0000FFFFFF00FFFFFFFFFFFFFFFFAAFFFFFFFFFFFFFF
1004
FFFFFFFFFFFFFFFAFAFFFFFFFFFFFFFFFFFFFFFFFFFFFFFAFAFFFFFFFFFFFFFFFFFFFFFFFFFFFFFAFAFFFFFFFFFFFFFFFFFFFFFFFFFFFAAAFAAAFFFFFFFFFFFFFFFFFFFFFFFFFAFAFAFFFFFFFFFFFFFFFFFFFFFFFFFFFAFAFAFFFFFFFFFFFFFFFFFFFFFFFFFFFAFAFAFFFFFFFFFFFFFFFFFFFFFFFFFFFAFA
1004
FAFFFFFFFFFFFFFFFFFFFFFFFFFFFAFAFAFFFFFFFFFFFFFFFFFFFFFFFFFFFAFAFAFFFFFFFFFFFFFFFFFFFFFFFFFFFAFAFAFFFFFFFFFFFFFFFFFFFFFFFFFFFAFAFAFFFFFFFFFFFFFFFFFFFFFFFFFFFAFAFAFFFFFFFFFFFFFFFFFFFFFFFFFFFAFAFAFFFFFFFFFFFFFFFFFFFFFFFFFFFAFAFAFFFFFFFFFFFFFF
1004
FFFFFFFFFFFFFAFAFAFFFFFFFFFFFFFFFFFFFFFFFFFFFAFAFAFFFFFFFFFFFFFFFFFFFFFFFFFFFAFAFAFFFFFFFFFFFFFFFFFFFFFFFFFFFAFAFAFFFFFFFFFFFFFFFFFFFFFFFFFFFAFAFAFFFFFFFFFFFFFFFFFFFFFFFFFFFAFAFAFFFFFFFFFFFFFFFFFFFFFFFFFFFAFAFAFFFFFFFFFFFFFFFFFFFFFFFFFFFAFA
1004
FAFFFFFFFFFFFFFFFFFFFFFFFFFFFAFAFAFFFFFFFFFFFFFFFFFFFFFFFFFFFAFAFAFFFFFFFFFFFFFFFFFFFFFFFFFFFAAAFAAFFFFFFFFFFFFFFFFFFFFFFFFFFFFAFAFFFFFFFFFFFFFFFFFFFFFFFFFFFFFAFAFFFFFFFFFFFFFFFFFFFFFFFFFFFFFAFAFFFFFFFFFFFFFFFFFFFFFFFFFFFFFAFAFFFFFFFFFFFFFF
1004
FFFFFFFFFFFFFFFFAAFFFFFFFFFFFFFF
  0
BLOCK_RECORD
  5
189E
100
AcDbSymbolTableRecord
100
AcDbBlockTableRecord
  2
AZAVER-B
1001
CONTENTBLOCKICON
1071
        0
1004
2800000020000000200000000100040000000000000200000000000000000000000000000000000000000000000080000080000000808000800000008000800080800000C0C0C000808080000000FF0000FF000000FFFF00FF000000FF00FF00FFFF0000FFFFFF00FFFFFFFFFFFFFFFFFFFFFFFFFFFFFFFF
1004
FFFFFFFFFFFFFFAFFFFFFFFFFFFFFFFFFFFFFFFFFFFFFFAFFFFFFFFFFFFFFFFFFFFFFFFFFFFFFFAFFFFFFFFFFFFFFFFFFFFFFFFFFFFFFFAFFFFFFFFFFFFFFFFFFFFFFFFFFFFFFFAFFFFFFFFFFFFFFFFFFFFFFFFFFFFFFFAFFFFFFFFFFFFFFFFFFFFFFFFFFFFFFFAFFFFFFFFFFFFFFFFFFFFFFFFFFFFFFFAF
1004
FAFFFFFFFFFFFFFFFFFFFFFFFFFFFFAFFAFFFFFFFFFFFFFFFFFFFFFFFFFFFFAAAAFFFFFFFFFFFFFFFFFFFFFFFFFFFFAAAAFFFFFFFFFFFFFFFFFFFFFFFFFFFFAAAAFFFFFFFFFFFFFFFFFFFFFFFFFFFFAAAAFFFFFFFFFFFFFFFFFFFFFFFFFFFFFAAFFFFFFFFFFFFFFFFFFFFFFFFFFFFFFAAFFFFFFFFFFFFFFF
1004
FFFFFFFFFFFFFFFAAFFFFFFFFFFFFFFFFFFFFFFFFFFFFFFAAFFFFFFFFFFFFFFFFFFFFFFFFFFFFFFAAFFFFFFFFFFFFFFFFFFFFFFFFFFFFFFAAFFFFFFFFFFFFFFFFFFFFFFFFFFFFFAAAAFFFFFFFFFFFFFFFFFFFFFFFFFFFFAAAAFFFFFFFFFFFFFFFFFFFFFFFFFFFFAAAAFFFFFFFFFFFFFFFFFFFFFFFFFFFFFF
1004
FAFFFFFFFFFFFFFFFFFFFFFFFFFFFFFFFAFFFFFFFFFFFFFFFFFFFFFFFFFFFFFFFAFFFFFFFFFFFFFFFFFFFFFFFFFFFFFFFAFFFFFFFFFFFFFFFFFFFFFFFFFFFFFFFAFFFFFFFFFFFFFFFFFFFFFFFFFFFFFFFAFFFFFFFFFFFFFFFFFFFFFFFFFFFFFFFAFFFFFFFFFFFFFFFFFFFFFFFFFFFFFFFAFFFFFFFFFFFFFF
1004
FFFFFFFFFFFFFFFFFAFFFFFFFFFFFFFF
  0
BLOCK_RECORD
  5
18D6
100
AcDbSymbolTableRecord
100
AcDbBlockTableRecord
  2
CMB-240-180-N
  0
ENDTAB
  0
ENDSEC
  0
SECTION
  2
BLOCKS
  0
BLOCK
  5
1B
100
AcDbEntity
  8
0
100
AcDbBlockBegin
  2
*MODEL_SPACE
 70
     0
 10
0.0
 20
0.0
 30
0.0
  3
*MODEL_SPACE
  1

  0
ENDBLK
  5
1C
100
AcDbEntity
  8
0
100
AcDbBlockEnd
  0
BLOCK
  5
18
100
AcDbEntity
 67
     1
  8
0
100
AcDbBlockBegin
  2
*PAPER_SPACE
 70
     0
 10
0.0
 20
0.0
 30
0.0
  3
*PAPER_SPACE
  1

  0
ENDBLK
  5
19
100
AcDbEntity
 67
     1
  8
0
100
AcDbBlockEnd
  0
BLOCK
  5
91
100
AcDbEntity
  8
0
100
AcDbBlockBegin
  2
_OPEN
 70
     0
 10
0.0
 20
0.0
 30
0.0
  3
_OPEN
  1

  0
LINE
  5
92
100
AcDbEntity
  8
0
  6
BYBLOCK
 62
     0
100
AcDbLine
 10
-1.0
 20
0.166667
 30
0.0
 11
0.0
 21
0.0
 31
0.0
  0
LINE
  5
93
100
AcDbEntity
  8
0
  6
BYBLOCK
 62
     0
100
AcDbLine
 10
0.0
 20
0.0
 30
0.0
 11
-1.0
 21
-0.166667
 31
0.0
  0
LINE
  5
94
100
AcDbEntity
  8
0
  6
BYBLOCK
 62
     0
100
AcDbLine
 10
0.0
 20
0.0
 30
0.0
 11
-1.0
 21
0.0
 31
0.0
  0
ENDBLK
  5
95
100
AcDbEntity
  8
0
100
AcDbBlockEnd
  0
BLOCK
  5
17E4
100
AcDbEntity
  8
0
 48
3.0
100
AcDbBlockBegin
  2
AZAVER
 70
     0
 10
0.0
 20
0.0
 30
0.0
  3
AZAVER
  1

  0
LINE
  5
1817
100
AcDbEntity
  8
V0-OBRYS
  6
CONTINUOUS
 62
    90
 48
3.0
100
AcDbLine
 10
40.124616
 20
15.125763
 30
0.0
 11
65.339471
 21
15.125763
 31
0.0
  0
LINE
  5
1818
100
AcDbEntity
  8
V0-OBRYS
  6
CONTINUOUS
 62
    90
 48
3.0
100
AcDbLine
 10
35.802071
 20
-6.469158
 30
0.0
 11
69.662016
 21
-6.469158
 31
0.0
  0
LINE
  5
1819
100
AcDbEntity
  8
V0-OBRYS
  6
CONTINUOUS
 62
    90
 48
3.0
100
AcDbLine
 10
40.124616
 20
-59.016801
 30
0.0
 11
65.339471
 21
-59.016801
 31
0.0
  0
LINE
  5
181A
100
AcDbEntity
  8
V0-OBRYS
  6
CONTINUOUS
 62
    90
 48
3.0
100
AcDbLine
 10
40.124616
 20
-28.06408
 30
0.0
 11
65.339471
 21
-28.06408
 31
0.0
  0
LINE
  5
181B
100
AcDbEntity
  8
V0-OBRYS
  6
CONTINUOUS
 62
    90
 48
3.0
100
AcDbLine
 10
40.124616
 20
-10.788143
 30
0.0
 11
65.339471
 21
-10.788143
 31
0.0
  0
LINE
  5
181C
100
AcDbEntity
  8
V0-OBRYS
  6
CONTINUOUS
 62
    90
 48
3.0
100
AcDbLine
 10
40.124616
 20
-59.016801
 30
0.0
 11
40.124616
 21
-28.06408
 31
0.0
  0
LINE
  5
181D
100
AcDbEntity
  8
V0-OBRYS
  6
CONTINUOUS
 62
    90
 48
3.0
100
AcDbLine
 10
40.124616
 20
15.125763
 30
0.0
 11
40.124616
 21
-10.788143
 31
0.0
  0
LINE
  5
181E
100
AcDbEntity
  8
V0-OBRYS
  6
CONTINUOUS
 62
    90
 48
3.0
100
AcDbLine
 10
35.081648
 20
-6.469158
 30
0.0
 11
35.081648
 21
-35.262385
 31
0.0
  0
LINE
  5
181F
100
AcDbEntity
  8
V0-OBRYS
  6
CONTINUOUS
 62
    90
 48
3.0
100
AcDbLine
 10
35.081648
 20
-35.262385
 30
0.0
 11
39.404193
 21
-35.262385
 31
0.0
  0
LINE
  5
1820
100
AcDbEntity
  8
V0-OBRYS
  6
CONTINUOUS
 62
    90
 48
3.0
100
AcDbLine
 10
65.339471
 20
-28.06408
 30
0.0
 11
65.339471
 21
-59.016801
 31
0.0
  0
LINE
  5
1821
100
AcDbEntity
  8
V0-OBRYS
  6
CONTINUOUS
 62
    90
 48
3.0
100
AcDbLine
 10
65.339471
 20
-10.788143
 30
0.0
 11
65.339471
 21
15.125763
 31
0.0
  0
LINE
  5
1822
100
AcDbEntity
  8
V0-OBRYS
  6
CONTINUOUS
 62
    90
 48
3.0
100
AcDbLine
 10
69.662016
 20
-6.469158
 30
0.0
 11
69.662016
 21
-35.262385
 31
0.0
  0
LINE
  5
1823
100
AcDbEntity
  8
V0-OBRYS
  6
CONTINUOUS
 62
    90
 48
3.0
100
AcDbLine
 10
69.662016
 20
-35.262385
 30
0.0
 11
65.339471
 21
-35.262385
 31
0.0
  0
ENDBLK
  5
17F2
100
AcDbEntity
  8
0
 48
3.0
100
AcDbBlockEnd
  0
BLOCK
  5
1878
100
AcDbEntity
  8
0
 48
3.0
100
AcDbBlockBegin
  2
AZAVER-P
 70
     0
 10
0.0
 20
0.0
 30
0.0
  3
AZAVER-P
  1

  0
LINE
  5
1879
100
AcDbEntity
  8
V0-OBRYS
  6
CONTINUOUS
 62
    90
 48
3.0
100
AcDbLine
 10
-3.827085
 20
-36.911801
 30
0.0
 11
-3.827085
 21
-70.692253
 31
0.0
  0
LINE
  5
187A
100
AcDbEntity
  8
V0-OBRYS
  6
CONTINUOUS
 62
    90
 48
3.0
100
AcDbLine
 10
-2.200766
 20
-70.692253
 30
0.0
 11
-2.200766
 21
-41.390269
 31
0.0
  0
ARC
  5
187B
100
AcDbEntity
  8
V0-OBRYS
  6
CONTINUOUS
 62
    90
 48
3.0
100
AcDbCircle
 10
-3.013925
 20
-70.692253
 30
0.0
 40
0.813159
100
AcDbArc
 50
180.0
 51
0.0
  0
LINE
  5
187C
100
AcDbEntity
  8
V0-OBRYS
  6
CONTINUOUS
 62
    90
 48
3.0
100
AcDbLine
 10
-6.519751
 20
-41.292399
 30
0.0
 11
-3.827085
 21
-41.292399
 31
0.0
  0
LINE
  5
187D
100
AcDbEntity
  8
V0-OBRYS
  6
CONTINUOUS
 62
    90
 48
3.0
100
AcDbLine
 10
-3.827085
 20
-66.507255
 30
0.0
 11
-6.519751
 21
-66.507255
 31
0.0
  0
LINE
  5
187E
100
AcDbEntity
  8
V0-OBRYS
  6
CONTINUOUS
 62
    90
 48
3.0
100
AcDbLine
 10
-6.519751
 20
-66.507255
 30
0.0
 11
-6.519751
 21
-41.292399
 31
0.0
  0
ARC
  5
187F
100
AcDbEntity
  8
V0-OBRYS
  6
CONTINUOUS
 62
    90
 48
3.0
100
AcDbCircle
 10
-3.013925
 20
-36.911801
 30
0.0
 40
0.813159
100
AcDbArc
 50
0.0
 51
180.0
  0
LINE
  5
1880
100
AcDbEntity
  8
V0-OBRYS
  6
CONTINUOUS
 62
    90
 48
3.0
100
AcDbLine
 10
-2.200766
 20
-41.390269
 30
0.0
 11
-2.200766
 21
-36.911801
 31
0.0
  0
LINE
  5
1881
100
AcDbEntity
  8
V0-OBRYS
  6
CONTINUOUS
 62
    90
 48
3.0
100
AcDbLine
 10
-2.191912
 20
-41.292399
 30
0.0
 11
0.0
 21
-41.292399
 31
0.0
  0
LINE
  5
1882
100
AcDbEntity
  8
V0-OBRYS
  6
CONTINUOUS
 62
    90
 48
3.0
100
AcDbLine
 10
0.0
 20
-66.507255
 30
0.0
 11
-2.191912
 21
-66.507255
 31
0.0
  0
ENDBLK
  5
1883
100
AcDbEntity
  8
0
 48
3.0
100
AcDbBlockEnd
  0
BLOCK
  5
189F
100
AcDbEntity
  8
0
 48
3.0
100
AcDbBlockBegin
  2
AZAVER-B
 70
     0
 10
0.0
 20
0.0
 30
0.0
  3
AZAVER-B
  1

  0
LINE
  5
18AE
100
AcDbEntity
  8
V0-OBRYS
  6
CONTINUOUS
 62
    90
 48
3.0
100
AcDbLine
 10
-7.466751
 20
-65.180052
 30
0.0
 11
-7.466751
 21
-78.057025
 31
0.0
  0
LINE
  5
18AF
100
AcDbEntity
  8
V0-OBRYS
  6
CONTINUOUS
 62
    90
 48
3.0
100
AcDbLine
 10
-3.324311
 20
-54.602539
 30
0.0
 11
-3.324311
 21
-25.629357
 31
0.0
  0
LINE
  5
18B0
100
AcDbEntity
  8
V0-OBRYS
  6
CONTINUOUS
 62
    90
 48
3.0
100
AcDbLine
 10
-5.625665
 20
-25.629357
 30
0.0
 11
-5.625665
 21
-54.602539
 31
0.0
  0
LINE
  5
18B1
100
AcDbEntity
  8
V0-OBRYS
  6
CONTINUOUS
 62
    90
 48
3.0
100
AcDbLine
 10
-5.625665
 20
-54.602539
 30
0.0
 11
-3.324311
 21
-54.602539
 31
0.0
  0
LINE
  5
18B2
100
AcDbEntity
  8
V0-OBRYS
  6
CONTINUOUS
 62
    90
 48
3.0
100
AcDbLine
 10
-1.483225
 20
-47.24427
 30
0.0
 11
-7.466751
 21
-47.24427
 31
0.0
  0
LINE
  5
18B3
100
AcDbEntity
  8
V0-OBRYS
  6
CONTINUOUS
 62
    90
 48
3.0
100
AcDbLine
 10
-7.466751
 20
-47.24427
 30
0.0
 11
-7.466751
 21
-65.180052
 31
0.0
  0
LINE
  5
18B4
100
AcDbEntity
  8
V0-OBRYS
  6
CONTINUOUS
 62
    90
 48
3.0
100
AcDbLine
 10
-1.483225
 20
-58.741568
 30
0.0
 11
-1.483225
 21
-47.24427
 31
0.0
  0
LINE
  5
18B5
100
AcDbEntity
  8
V0-OBRYS
  6
CONTINUOUS
 62
    90
 48
3.0
100
AcDbLine
 10
-3.324311
 20
-25.629357
 30
0.0
 11
-5.625665
 21
-25.629357
 31
0.0
  0
LINE
  5
18B6
100
AcDbEntity
  8
V0-OBRYS
  6
CONTINUOUS
 62
    90
 48
3.0
100
AcDbLine
 10
-1.483225
 20
-30.228273
 30
0.0
 11
-7.927024
 21
-30.228273
 31
0.0
  0
LINE
  5
18B7
100
AcDbEntity
  8
V0-OBRYS
  6
CONTINUOUS
 62
    90
 48
3.0
100
AcDbLine
 10
-7.927024
 20
-30.228273
 30
0.0
 11
-7.927024
 21
-24.249679
 31
0.0
  0
LINE
  5
18B8
100
AcDbEntity
  8
V0-OBRYS
  6
CONTINUOUS
 62
    90
 48
3.0
100
AcDbLine
 10
-1.483225
 20
-4.01444
 30
0.0
 11
-1.483225
 21
-30.228273
 31
0.0
  0
ENDBLK
  5
18AB
100
AcDbEntity
  8
0
 48
3.0
100
AcDbBlockEnd
  0
BLOCK
  5
18FC
100
AcDbEntity
  8
0
 62
    41
 48
3.0
100
AcDbBlockBegin
  2
CMB-240-180-N
 70
     0
 10
0.0
 20
0.0
 30
0.0
  3
CMB-240-180-N
  1

  0
LINE
  5
18D7
100
AcDbEntity
  8
V0-VYPLNE
100
AcDbLine
 10
-181.44995
 20
-26.63432
 30
0.0
 11
-181.44995
 21
-139.133702
 31
0.0
  0
ARC
  5
18D8
100
AcDbEntity
  8
V0-OBRYS
100
AcDbCircle
 10
-170.55995
 20
79.520028
 30
0.0
 40
209.33
100
AcDbArc
 50
182.626485
 51
270.0
  0
MTEXT
  5
18D9
100
AcDbEntity
  8
V0-NAZVY
100
AcDbMText
 10
-250.860869
 20
-44.196084
 30
0.0
 40
27.225
 41
223.9425
 71
     5
 72
     5
  1
CBM-240-180
  7
ED10
  0
LINE
  5
18DA
100
AcDbEntity
  8
V0-VYPLNE
100
AcDbLine
 10
25.866213
 20
100.090028
 30
0.0
 11
-335.743575
 21
100.090028
 31
0.0
  0
LWPOLYLINE
  5
18DB
100
AcDbEntity
  8
V0-OBRYS
100
AcDbPolyline
 90
        4
 70
     1
 43
0.0
 10
-252.833381
 20
-106.848253
 10
-182.833381
 20
-106.848253
 10
-182.833381
 20
-86.848253
 10
-252.833381
 20
-86.848253
  0
ARC
  5
18DC
100
AcDbEntity
  8
V0-OBRYS
100
AcDbCircle
 10
-184.44995
 20
100.090028
 30
0.0
 40
67.414501
100
AcDbArc
 50
32.684046
 51
147.424572
  0
ARC
  5
18DD
100
AcDbEntity
  8
V0-OBRYS
100
AcDbCircle
 10
-184.44995
 20
100.090028
 30
0.0
 40
105.571475
100
AcDbArc
 50
31.727031
 51
148.450037
  0
ARC
  5
18DE
100
AcDbEntity
  8
V0-OBRYS
100
AcDbCircle
 10
-184.44995
 20
100.090028
 30
0.0
 40
110.298019
100
AcDbArc
 50
31.609657
 51
148.514274
  0
LINE
  5
18DF
100
AcDbEntity
  8
V0-OBRYS
100
AcDbLine
 10
-208.026241
 20
110.208837
 30
0.0
 11
-295.708955
 21
160.832476
 31
0.0
  0
LINE
  5
18E0
100
AcDbEntity
  8
V0-OBRYS
100
AcDbLine
 10
-205.001241
 20
115.44829
 30
0.0
 11
-292.683955
 21
166.071929
 31
0.0
  0
ARC
  5
18E1
100
AcDbEntity
  8
V0-OBRYS
100
AcDbCircle
 10
-184.44995
 20
100.090028
 30
0.0
 40
110.298019
100
AcDbArc
 50
151.558401
 51
268.418387
  0
ARC
  5
18E2
100
AcDbEntity
  8
V0-OBRYS
100
AcDbCircle
 10
-184.44995
 20
100.090028
 30
0.0
 40
105.571475
100
AcDbArc
 50
151.655913
 51
268.285088
  0
ARC
  5
18E3
100
AcDbEntity
  8
V0-OBRYS
100
AcDbCircle
 10
-184.44995
 20
100.090028
 30
0.0
 40
67.414501
100
AcDbArc
 50
152.614823
 51
267.600439
  0
ARC
  5
18E4
100
AcDbEntity
  8
V0-OBRYS
100
AcDbCircle
 10
-197.17995
 20
79.520028
 30
0.0
 40
182.71
100
AcDbArc
 50
90.0
 51
182.916555
  0
ARC
  5
18E5
100
AcDbEntity
  8
V0-OBRYS
100
AcDbCircle
 10
-294.196455
 20
163.452203
 30
0.0
 40
3.025
100
AcDbArc
 50
60.0
 51
240.0
  0
ARC
  5
18E6
100
AcDbEntity
  8
V0-OBRYS
100
AcDbCircle
 10
-170.55995
 20
79.520028
 30
0.0
 40
209.33
100
AcDbArc
 50
179.728476
 51
180.0
  0
ARC
  5
18E7
100
AcDbEntity
  8
V0-OBRYS
100
AcDbCircle
 10
-74.703445
 20
163.452203
 30
0.0
 40
3.025
100
AcDbArc
 50
300.0
 51
120.0
  0
LINE
  5
18E8
100
AcDbEntity
  8
V0-OBRYS
100
AcDbLine
 10
-163.89866
 20
115.44829
 30
0.0
 11
-76.215945
 21
166.071929
 31
0.0
  0
LINE
  5
18E9
100
AcDbEntity
  8
V0-VYPLNE
100
AcDbLine
 10
-183.44995
 20
261.435409
 30
0.0
 11
-184.44995
 21
-26.63432
 31
0.0
  0
ARC
  5
18EA
100
AcDbEntity
  8
V0-OBRYS
100
AcDbCircle
 10
-205.836025
 20
98.077269
 30
0.0
 40
164.380826
100
AcDbArc
 50
11.130492
 51
86.981485
  0
ARC
  5
18EB
100
AcDbEntity
  8
V0-OBRYS
100
AcDbCircle
 10
-184.44995
 20
100.090028
 30
0.0
 40
110.298019
100
AcDbArc
 50
271.628789
 51
28.480046
  0
ARC
  5
18EC
100
AcDbEntity
  8
V0-OBRYS
100
AcDbCircle
 10
-184.44995
 20
100.090028
 30
0.0
 40
105.571475
100
AcDbArc
 50
271.637083
 51
28.280642
  0
LINE
  5
18ED
100
AcDbEntity
  8
V0-OBRYS
100
AcDbLine
 10
-187.47495
 20
74.612957
 30
0.0
 11
-187.47495
 21
-26.63432
 31
0.0
  0
LINE
  5
18EE
100
AcDbEntity
  8
V0-OBRYS
100
AcDbLine
 10
-181.42495
 20
74.612957
 30
0.0
 11
-181.42495
 21
-26.63432
 31
0.0
  0
LINE
  5
18EF
100
AcDbEntity
  8
V0-OBRYS
100
AcDbLine
 10
-44.547191
 20
129.810028
 30
0.0
 11
-44.547191
 21
-129.265036
 31
0.0
  0
LINE
  5
18F0
100
AcDbEntity
  8
V0-OBRYS
100
AcDbLine
 10
0.00005
 20
-129.809972
 30
0.0
 11
0.00005
 21
129.810028
 31
0.0
  0
LWPOLYLINE
  5
18F1
100
AcDbEntity
  8
V0-OBRYS
100
AcDbPolyline
 90
        4
 70
     1
 43
0.0
 10
-147.266717
 20
-120.838177
 10
-87.266717
 20
-120.838177
 10
-87.266717
 20
-60.838177
 10
-147.266717
 20
-60.838177
  0
LINE
  5
18F2
100
AcDbEntity
  8
V0-OBRYS
100
AcDbLine
 10
-170.55995
 20
-129.809972
 30
0.0
 11
0.00005
 21
-129.809972
 31
0.0
  0
ARC
  5
18F3
100
AcDbEntity
  8
V0-OBRYS
100
AcDbCircle
 10
-181.44995
 20
-26.63432
 30
0.0
 40
3.025
100
AcDbArc
 50
180.0
 51
0.0
  0
POINT
  5
18F4
100
AcDbEntity
  8
0
  6
CONTINUOUS
 62
     7
100
AcDbPoint
 10
0.00005
 20
0.000028
 30
0.0
  0
ARC
  5
18F5
100
AcDbEntity
  8
V0-OBRYS
100
AcDbCircle
 10
-184.44995
 20
100.090028
 30
0.0
 40
67.414501
100
AcDbArc
 50
272.565236
 51
27.437736
  0
LINE
  5
18F6
100
AcDbEntity
  8
V0-OBRYS
100
AcDbLine
 10
-160.87366
 20
110.208837
 30
0.0
 11
-73.190945
 21
160.832476
 31
0.0
  0
CIRCLE
  5
18F7
100
AcDbEntity
  8
V0-OBRYS
100
AcDbCircle
 10
-184.44995
 20
100.090028
 30
0.0
 40
25.477071
  0
LINE
  5
18F8
100
AcDbEntity
  8
V0-OBRYS
100
AcDbLine
 10
-181.42495
 20
74.612957
 30
0.0
 11
-187.47495
 21
74.612957
 31
0.0
  0
LINE
  5
18F9
100
AcDbEntity
  8
V0-OBRYS
100
AcDbLine
 10
-208.026241
 20
110.208837
 30
0.0
 11
-205.001241
 21
115.44829
 31
0.0
  0
LINE
  5
18FA
100
AcDbEntity
  8
V0-OBRYS
100
AcDbLine
 10
-163.89866
 20
115.44829
 30
0.0
 11
-160.87366
 21
110.208837
 31
0.0
  0
LINE
  5
18FB
100
AcDbEntity
  8
V0-OBRYS
100
AcDbLine
 10
-44.547191
 20
129.810028
 30
0.0
 11
0.00005
 21
129.810028
 31
0.0
  0
ENDBLK
  5
18FD
100
AcDbEntity
  8
0
 62
    41
 48
3.0
100
AcDbBlockEnd
  0
ENDSEC
  0
SECTION
  2
ENTITIES
  0
LINE
  5
1BBC
100
AcDbEntity
  8
V0-ZBYTEK
  6
CONTINUOUS
 48
3.0
100
AcDbLine
 10
-55.0
 20
-202.980895
 30
0.0
 11
55.0
 21
-202.980895
 31
0.0
  0
POLYLINE
  5
1C6D
100
AcDbEntity
  8
V0-ZBYTEK
  6
CONTINUOUS
 48
3.0
100
AcDbPolygonMesh
 66
     1
 10
0.0
 20
0.0
 30
0.0
 70
    17
 71
    15
 72
    29
  0
VERTEX
  5
1C6E
100
AcDbEntity
  8
V0-ZBYTEK
  6
CONTINUOUS
 48
3.0
100
AcDbVertex
100
AcDbPolygonMeshVertex
 10
-55.0
 20
-202.980895
 30
0.0
 70
    64
  0
VERTEX
  5
1C6F
100
AcDbEntity
  8
V0-ZBYTEK
  6
CONTINUOUS
 48
3.0
100
AcDbVertex
100
AcDbPolygonMeshVertex
 10
-55.0
 20
-163.480895
 30
0.0
 70
    64
  0
VERTEX
  5
1C70
100
AcDbEntity
  8
V0-ZBYTEK
  6
CONTINUOUS
 48
3.0
100
AcDbVertex
100
AcDbPolygonMeshVertex
 10
-44.0
 20
-163.480895
 30
0.0
 70
    64
  0
VERTEX
  5
1C71
100
AcDbEntity
  8
V0-ZBYTEK
  6
CONTINUOUS
 48
3.0
100
AcDbVertex
100
AcDbPolygonMeshVertex
 10
-44.0
 20
-157.980895
 30
0.0
 70
    64
  0
VERTEX
  5
1C72
100
AcDbEntity
  8
V0-ZBYTEK
  6
CONTINUOUS
 48
3.0
100
AcDbVertex
100
AcDbPolygonMeshVertex
 10
-43.5
 20
-157.980895
 30
0.0
 70
    64
  0
VERTEX
  5
1C73
100
AcDbEntity
  8
V0-ZBYTEK
  6
CONTINUOUS
 48
3.0
100
AcDbVertex
100
AcDbPolygonMeshVertex
 10
-43.5
 20
-163.480895
 30
0.0
 70
    64
  0
VERTEX
  5
1C74
100
AcDbEntity
  8
V0-ZBYTEK
  6
CONTINUOUS
 48
3.0
100
AcDbVertex
100
AcDbPolygonMeshVertex
 10
-35.0
 20
-163.480895
 30
0.0
 70
    64
  0
VERTEX
  5
1C75
100
AcDbEntity
  8
V0-ZBYTEK
  6
CONTINUOUS
 48
3.0
100
AcDbVertex
100
AcDbPolygonMeshVertex
 10
-35.0
 20
-161.980895
 30
0.0
 70
    64
  0
VERTEX
  5
1C76
100
AcDbEntity
  8
V0-ZBYTEK
  6
CONTINUOUS
 48
3.0
100
AcDbVertex
100
AcDbPolygonMeshVertex
 10
-25.0
 20
-161.980895
 30
0.0
 70
    64
  0
VERTEX
  5
1C77
100
AcDbEntity
  8
V0-ZBYTEK
  6
CONTINUOUS
 48
3.0
100
AcDbVertex
100
AcDbPolygonMeshVertex
 10
-25.0
 20
-160.980895
 30
0.0
 70
    64
  0
VERTEX
  5
1C78
100
AcDbEntity
  8
V0-ZBYTEK
  6
CONTINUOUS
 48
3.0
100
AcDbVertex
100
AcDbPolygonMeshVertex
 10
-22.0
 20
-160.980895
 30
0.0
 70
    64
  0
VERTEX
  5
1C79
100
AcDbEntity
  8
V0-ZBYTEK
  6
CONTINUOUS
 48
3.0
100
AcDbVertex
100
AcDbPolygonMeshVertex
 10
-22.0
 20
-161.980895
 30
0.0
 70
    64
  0
VERTEX
  5
1C7A
100
AcDbEntity
  8
V0-ZBYTEK
  6
CONTINUOUS
 48
3.0
100
AcDbVertex
100
AcDbPolygonMeshVertex
 10
-5.0
 20
-161.980895
 30
0.0
 70
    64
  0
VERTEX
  5
1C7B
100
AcDbEntity
  8
V0-ZBYTEK
  6
CONTINUOUS
 48
3.0
100
AcDbVertex
100
AcDbPolygonMeshVertex
 10
-5.0
 20
-140.480895
 30
0.0
 70
    64
  0
VERTEX
  5
1C7C
100
AcDbEntity
  8
V0-ZBYTEK
  6
CONTINUOUS
 48
3.0
100
AcDbVertex
100
AcDbPolygonMeshVertex
 10
5.0
 20
-140.480895
 30
0.0
 70
    64
  0
VERTEX
  5
1C7D
100
AcDbEntity
  8
V0-ZBYTEK
  6
CONTINUOUS
 48
3.0
100
AcDbVertex
100
AcDbPolygonMeshVertex
 10
5.0
 20
-161.980895
 30
0.0
 70
    64
  0
VERTEX
  5
1C7E
100
AcDbEntity
  8
V0-ZBYTEK
  6
CONTINUOUS
 48
3.0
100
AcDbVertex
100
AcDbPolygonMeshVertex
 10
22.0
 20
-161.980895
 30
0.0
 70
    64
  0
VERTEX
  5
1C7F
100
AcDbEntity
  8
V0-ZBYTEK
  6
CONTINUOUS
 48
3.0
100
AcDbVertex
100
AcDbPolygonMeshVertex
 10
22.0
 20
-160.980895
 30
0.0
 70
    64
  0
VERTEX
  5
1C80
100
AcDbEntity
  8
V0-ZBYTEK
  6
CONTINUOUS
 48
3.0
100
AcDbVertex
100
AcDbPolygonMeshVertex
 10
25.0
 20
-160.980895
 30
0.0
 70
    64
  0
VERTEX
  5
1C81
100
AcDbEntity
  8
V0-ZBYTEK
  6
CONTINUOUS
 48
3.0
100
AcDbVertex
100
AcDbPolygonMeshVertex
 10
25.0
 20
-161.980895
 30
0.0
 70
    64
  0
VERTEX
  5
1C82
100
AcDbEntity
  8
V0-ZBYTEK
  6
CONTINUOUS
 48
3.0
100
AcDbVertex
100
AcDbPolygonMeshVertex
 10
35.0
 20
-161.980895
 30
0.0
 70
    64
  0
VERTEX
  5
1C83
100
AcDbEntity
  8
V0-ZBYTEK
  6
CONTINUOUS
 48
3.0
100
AcDbVertex
100
AcDbPolygonMeshVertex
 10
35.0
 20
-163.480895
 30
0.0
 70
    64
  0
VERTEX
  5
1C84
100
AcDbEntity
  8
V0-ZBYTEK
  6
CONTINUOUS
 48
3.0
100
AcDbVertex
100
AcDbPolygonMeshVertex
 10
43.5
 20
-163.480895
 30
0.0
 70
    64
  0
VERTEX
  5
1C85
100
AcDbEntity
  8
V0-ZBYTEK
  6
CONTINUOUS
 48
3.0
100
AcDbVertex
100
AcDbPolygonMeshVertex
 10
43.5
 20
-157.980895
 30
0.0
 70
    64
  0
VERTEX
  5
1C86
100
AcDbEntity
  8
V0-ZBYTEK
  6
CONTINUOUS
 48
3.0
100
AcDbVertex
100
AcDbPolygonMeshVertex
 10
44.0
 20
-157.980895
 30
0.0
 70
    64
  0
VERTEX
  5
1C87
100
AcDbEntity
  8
V0-ZBYTEK
  6
CONTINUOUS
 48
3.0
100
AcDbVertex
100
AcDbPolygonMeshVertex
 10
44.0
 20
-163.480895
 30
0.0
 70
    64
  0
VERTEX
  5
1C88
100
AcDbEntity
  8
V0-ZBYTEK
  6
CONTINUOUS
 48
3.0
100
AcDbVertex
100
AcDbPolygonMeshVertex
 10
55.0
 20
-163.480895
 30
0.0
 70
    64
  0
VERTEX
  5
1C89
100
AcDbEntity
  8
V0-ZBYTEK
  6
CONTINUOUS
 48
3.0
100
AcDbVertex
100
AcDbPolygonMeshVertex
 10
55.0
 20
-202.980895
 30
0.0
 70
    64
  0
VERTEX
  5
1C8A
100
AcDbEntity
  8
V0-ZBYTEK
  6
CONTINUOUS
 48
3.0
100
AcDbVertex
100
AcDbPolygonMeshVertex
 10
52.966022
 20
-202.980895
 30
0.0
 70
    64
  0
VERTEX
  5
1C8B
100
AcDbEntity
  8
V0-ZBYTEK
  6
CONTINUOUS
 48
3.0
100
AcDbVertex
100
AcDbPolygonMeshVertex
 10
-55.0
 20
-202.980895
 30
0.0
 70
    64
  0
VERTEX
  5
1C8C
100
AcDbEntity
  8
V0-ZBYTEK
  6
CONTINUOUS
 48
3.0
100
AcDbVertex
100
AcDbPolygonMeshVertex
 10
-55.0
 20
-166.895849
 30
16.066097
 70
    64
  0
VERTEX
  5
1C8D
100
AcDbEntity
  8
V0-ZBYTEK
  6
CONTINUOUS
 48
3.0
100
AcDbVertex
100
AcDbPolygonMeshVertex
 10
-44.0
 20
-166.895849
 30
16.066097
 70
    64
  0
VERTEX
  5
1C8E
100
AcDbEntity
  8
V0-ZBYTEK
  6
CONTINUOUS
 48
3.0
100
AcDbVertex
100
AcDbPolygonMeshVertex
 10
-44.0
 20
-161.871349
 30
18.303149
 70
    64
  0
VERTEX
  5
1C8F
100
AcDbEntity
  8
V0-ZBYTEK
  6
CONTINUOUS
 48
3.0
100
AcDbVertex
100
AcDbPolygonMeshVertex
 10
-43.5
 20
-161.871349
 30
18.303149
 70
    64
  0
VERTEX
  5
1C90
100
AcDbEntity
  8
V0-ZBYTEK
  6
CONTINUOUS
 48
3.0
100
AcDbVertex
100
AcDbPolygonMeshVertex
 10
-43.5
 20
-166.895849
 30
16.066097
 70
    64
  0
VERTEX
  5
1C91
100
AcDbEntity
  8
V0-ZBYTEK
  6
CONTINUOUS
 48
3.0
100
AcDbVertex
100
AcDbPolygonMeshVertex
 10
-35.0
 20
-166.895849
 30
16.066097
 70
    64
  0
VERTEX
  5
1C92
100
AcDbEntity
  8
V0-ZBYTEK
  6
CONTINUOUS
 48
3.0
100
AcDbVertex
100
AcDbPolygonMeshVertex
 10
-35.0
 20
-165.525531
 30
16.676202
 70
    64
  0
VERTEX
  5
1C93
100
AcDbEntity
  8
V0-ZBYTEK
  6
CONTINUOUS
 48
3.0
100
AcDbVertex
100
AcDbPolygonMeshVertex
 10
-25.0
 20
-165.525531
 30
16.676202
 70
    64
  0
VERTEX
  5
1C94
100
AcDbEntity
  8
V0-ZBYTEK
  6
CONTINUOUS
 48
3.0
100
AcDbVertex
100
AcDbPolygonMeshVertex
 10
-25.0
 20
-164.611985
 30
17.082939
 70
    64
  0
VERTEX
  5
1C95
100
AcDbEntity
  8
V0-ZBYTEK
  6
CONTINUOUS
 48
3.0
100
AcDbVertex
100
AcDbPolygonMeshVertex
 10
-22.0
 20
-164.611985
 30
17.082939
 70
    64
  0
VERTEX
  5
1C96
100
AcDbEntity
  8
V0-ZBYTEK
  6
CONTINUOUS
 48
3.0
100
AcDbVertex
100
AcDbPolygonMeshVertex
 10
-22.0
 20
-165.525531
 30
16.676202
 70
    64
  0
VERTEX
  5
1C97
100
AcDbEntity
  8
V0-ZBYTEK
  6
CONTINUOUS
 48
3.0
100
AcDbVertex
100
AcDbPolygonMeshVertex
 10
-5.0
 20
-165.525531
 30
16.676202
 70
    64
  0
VERTEX
  5
1C98
100
AcDbEntity
  8
V0-ZBYTEK
  6
CONTINUOUS
 48
3.0
100
AcDbVertex
100
AcDbPolygonMeshVertex
 10
-5.0
 20
-145.884303
 30
25.42104
 70
    64
  0
VERTEX
  5
1C99
100
AcDbEntity
  8
V0-ZBYTEK
  6
CONTINUOUS
 48
3.0
100
AcDbVertex
100
AcDbPolygonMeshVertex
 10
5.0
 20
-145.884303
 30
25.42104
 70
    64
  0
VERTEX
  5
1C9A
100
AcDbEntity
  8
V0-ZBYTEK
  6
CONTINUOUS
 48
3.0
100
AcDbVertex
100
AcDbPolygonMeshVertex
 10
5.0
 20
-165.525531
 30
16.676202
 70
    64
  0
VERTEX
  5
1C9B
100
AcDbEntity
  8
V0-ZBYTEK
  6
CONTINUOUS
 48
3.0
100
AcDbVertex
100
AcDbPolygonMeshVertex
 10
22.0
 20
-165.525531
 30
16.676202
 70
    64
  0
VERTEX
  5
1C9C
100
AcDbEntity
  8
V0-ZBYTEK
  6
CONTINUOUS
 48
3.0
100
AcDbVertex
100
AcDbPolygonMeshVertex
 10
22.0
 20
-164.611985
 30
17.082939
 70
    64
  0
VERTEX
  5
1C9D
100
AcDbEntity
  8
V0-ZBYTEK
  6
CONTINUOUS
 48
3.0
100
AcDbVertex
100
AcDbPolygonMeshVertex
 10
25.0
 20
-164.611985
 30
17.082939
 70
    64
  0
VERTEX
  5
1C9E
100
AcDbEntity
  8
V0-ZBYTEK
  6
CONTINUOUS
 48
3.0
100
AcDbVertex
100
AcDbPolygonMeshVertex
 10
25.0
 20
-165.525531
 30
16.676202
 70
    64
  0
VERTEX
  5
1C9F
100
AcDbEntity
  8
V0-ZBYTEK
  6
CONTINUOUS
 48
3.0
100
AcDbVertex
100
AcDbPolygonMeshVertex
 10
35.0
 20
-165.525531
 30
16.676202
 70
    64
  0
VERTEX
  5
1CA0
100
AcDbEntity
  8
V0-ZBYTEK
  6
CONTINUOUS
 48
3.0
100
AcDbVertex
100
AcDbPolygonMeshVertex
 10
35.0
 20
-166.895849
 30
16.066097
 70
    64
  0
VERTEX
  5
1CA1
100
AcDbEntity
  8
V0-ZBYTEK
  6
CONTINUOUS
 48
3.0
100
AcDbVertex
100
AcDbPolygonMeshVertex
 10
43.5
 20
-166.895849
 30
16.066097
 70
    64
  0
VERTEX
  5
1CA2
100
AcDbEntity
  8
V0-ZBYTEK
  6
CONTINUOUS
 48
3.0
100
AcDbVertex
100
AcDbPolygonMeshVertex
 10
43.5
 20
-161.871349
 30
18.303149
 70
    64
  0
VERTEX
  5
1CA3
100
AcDbEntity
  8
V0-ZBYTEK
  6
CONTINUOUS
 48
3.0
100
AcDbVertex
100
AcDbPolygonMeshVertex
 10
44.0
 20
-161.871349
 30
18.303149
 70
    64
  0
VERTEX
  5
1CA4
100
AcDbEntity
  8
V0-ZBYTEK
  6
CONTINUOUS
 48
3.0
100
AcDbVertex
100
AcDbPolygonMeshVertex
 10
44.0
 20
-166.895849
 30
16.066097
 70
    64
  0
VERTEX
  5
1CA5
100
AcDbEntity
  8
V0-ZBYTEK
  6
CONTINUOUS
 48
3.0
100
AcDbVertex
100
AcDbPolygonMeshVertex
 10
55.0
 20
-166.895849
 30
16.066097
 70
    64
  0
VERTEX
  5
1CA6
100
AcDbEntity
  8
V0-ZBYTEK
  6
CONTINUOUS
 48
3.0
100
AcDbVertex
100
AcDbPolygonMeshVertex
 10
55.0
 20
-202.980895
 30
0.0
 70
    64
  0
VERTEX
  5
1CA7
100
AcDbEntity
  8
V0-ZBYTEK
  6
CONTINUOUS
 48
3.0
100
AcDbVertex
100
AcDbPolygonMeshVertex
 10
52.966022
 20
-202.980895
 30
0.0
 70
    64
  0
VERTEX
  5
1CA8
100
AcDbEntity
  8
V0-ZBYTEK
  6
CONTINUOUS
 48
3.0
100
AcDbVertex
100
AcDbPolygonMeshVertex
 10
-55.0
 20
-202.980895
 30
0.0
 70
    64
  0
VERTEX
  5
1CA9
100
AcDbEntity
  8
V0-ZBYTEK
  6
CONTINUOUS
 48
3.0
100
AcDbVertex
100
AcDbPolygonMeshVertex
 10
-55.0
 20
-176.550236
 30
29.354221
 70
    64
  0
VERTEX
  5
1CAA
100
AcDbEntity
  8
V0-ZBYTEK
  6
CONTINUOUS
 48
3.0
100
AcDbVertex
100
AcDbPolygonMeshVertex
 10
-44.0
 20
-176.550236
 30
29.354221
 70
    64
  0
VERTEX
  5
1CAB
100
AcDbEntity
  8
V0-ZBYTEK
  6
CONTINUOUS
 48
3.0
100
AcDbVertex
100
AcDbPolygonMeshVertex
 10
-44.0
 20
-172.870017
 30
33.441517
 70
    64
  0
VERTEX
  5
1CAC
100
AcDbEntity
  8
V0-ZBYTEK
  6
CONTINUOUS
 48
3.0
100
AcDbVertex
100
AcDbPolygonMeshVertex
 10
-43.5
 20
-172.870017
 30
33.441517
 70
    64
  0
VERTEX
  5
1CAD
100
AcDbEntity
  8
V0-ZBYTEK
  6
CONTINUOUS
 48
3.0
100
AcDbVertex
100
AcDbPolygonMeshVertex
 10
-43.5
 20
-176.550236
 30
29.354221
 70
    64
  0
VERTEX
  5
1CAE
100
AcDbEntity
  8
V0-ZBYTEK
  6
CONTINUOUS
 48
3.0
100
AcDbVertex
100
AcDbPolygonMeshVertex
 10
-35.0
 20
-176.550236
 30
29.354221
 70
    64
  0
VERTEX
  5
1CAF
100
AcDbEntity
  8
V0-ZBYTEK
  6
CONTINUOUS
 48
3.0
100
AcDbVertex
100
AcDbPolygonMeshVertex
 10
-35.0
 20
-175.54654
 30
30.468938
 70
    64
  0
VERTEX
  5
1CB0
100
AcDbEntity
  8
V0-ZBYTEK
  6
CONTINUOUS
 48
3.0
100
AcDbVertex
100
AcDbPolygonMeshVertex
 10
-25.0
 20
-175.54654
 30
30.468938
 70
    64
  0
VERTEX
  5
1CB1
100
AcDbEntity
  8
V0-ZBYTEK
  6
CONTINUOUS
 48
3.0
100
AcDbVertex
100
AcDbPolygonMeshVertex
 10
-25.0
 20
-174.877409
 30
31.212083
 70
    64
  0
VERTEX
  5
1CB2
100
AcDbEntity
  8
V0-ZBYTEK
  6
CONTINUOUS
 48
3.0
100
AcDbVertex
100
AcDbPolygonMeshVertex
 10
-22.0
 20
-174.877409
 30
31.212083
 70
    64
  0
VERTEX
  5
1CB3
100
AcDbEntity
  8
V0-ZBYTEK
  6
CONTINUOUS
 48
3.0
100
AcDbVertex
100
AcDbPolygonMeshVertex
 10
-22.0
 20
-175.54654
 30
30.468938
 70
    64
  0
VERTEX
  5
1CB4
100
AcDbEntity
  8
V0-ZBYTEK
  6
CONTINUOUS
 48
3.0
100
AcDbVertex
100
AcDbPolygonMeshVertex
 10
-5.0
 20
-175.54654
 30
30.468938
 70
    64
  0
VERTEX
  5
1CB5
100
AcDbEntity
  8
V0-ZBYTEK
  6
CONTINUOUS
 48
3.0
100
AcDbVertex
100
AcDbPolygonMeshVertex
 10
-5.0
 20
-161.160232
 30
46.446552
 70
    64
  0
VERTEX
  5
1CB6
100
AcDbEntity
  8
V0-ZBYTEK
  6
CONTINUOUS
 48
3.0
100
AcDbVertex
100
AcDbPolygonMeshVertex
 10
5.0
 20
-161.160232
 30
46.446552
 70
    64
  0
VERTEX
  5
1CB7
100
AcDbEntity
  8
V0-ZBYTEK
  6
CONTINUOUS
 48
3.0
100
AcDbVertex
100
AcDbPolygonMeshVertex
 10
5.0
 20
-175.54654
 30
30.468938
 70
    64
  0
VERTEX
  5
1CB8
100
AcDbEntity
  8
V0-ZBYTEK
  6
CONTINUOUS
 48
3.0
100
AcDbVertex
100
AcDbPolygonMeshVertex
 10
22.0
 20
-175.54654
 30
30.468938
 70
    64
  0
VERTEX
  5
1CB9
100
AcDbEntity
  8
V0-ZBYTEK
  6
CONTINUOUS
 48
3.0
100
AcDbVertex
100
AcDbPolygonMeshVertex
 10
22.0
 20
-174.877409
 30
31.212083
 70
    64
  0
VERTEX
  5
1CBA
100
AcDbEntity
  8
V0-ZBYTEK
  6
CONTINUOUS
 48
3.0
100
AcDbVertex
100
AcDbPolygonMeshVertex
 10
25.0
 20
-174.877409
 30
31.212083
 70
    64
  0
VERTEX
  5
1CBB
100
AcDbEntity
  8
V0-ZBYTEK
  6
CONTINUOUS
 48
3.0
100
AcDbVertex
100
AcDbPolygonMeshVertex
 10
25.0
 20
-175.54654
 30
30.468938
 70
    64
  0
VERTEX
  5
1CBC
100
AcDbEntity
  8
V0-ZBYTEK
  6
CONTINUOUS
 48
3.0
100
AcDbVertex
100
AcDbPolygonMeshVertex
 10
35.0
 20
-175.54654
 30
30.468938
 70
    64
  0
VERTEX
  5
1CBD
100
AcDbEntity
  8
V0-ZBYTEK
  6
CONTINUOUS
 48
3.0
100
AcDbVertex
100
AcDbPolygonMeshVertex
 10
35.0
 20
-176.550236
 30
29.354221
 70
    64
  0
VERTEX
  5
1CBE
100
AcDbEntity
  8
V0-ZBYTEK
  6
CONTINUOUS
 48
3.0
100
AcDbVertex
100
AcDbPolygonMeshVertex
 10
43.5
 20
-176.550236
 30
29.354221
 70
    64
  0
VERTEX
  5
1CBF
100
AcDbEntity
  8
V0-ZBYTEK
  6
CONTINUOUS
 48
3.0
100
AcDbVertex
100
AcDbPolygonMeshVertex
 10
43.5
 20
-172.870017
 30
33.441517
 70
    64
  0
VERTEX
  5
1CC0
100
AcDbEntity
  8
V0-ZBYTEK
  6
CONTINUOUS
 48
3.0
100
AcDbVertex
100
AcDbPolygonMeshVertex
 10
44.0
 20
-172.870017
 30
33.441517
 70
    64
  0
VERTEX
  5
1CC1
100
AcDbEntity
  8
V0-ZBYTEK
  6
CONTINUOUS
 48
3.0
100
AcDbVertex
100
AcDbPolygonMeshVertex
 10
44.0
 20
-176.550236
 30
29.354221
 70
    64
  0
VERTEX
  5
1CC2
100
AcDbEntity
  8
V0-ZBYTEK
  6
CONTINUOUS
 48
3.0
100
AcDbVertex
100
AcDbPolygonMeshVertex
 10
55.0
 20
-176.550236
 30
29.354221
 70
    64
  0
VERTEX
  5
1CC3
100
AcDbEntity
  8
V0-ZBYTEK
  6
CONTINUOUS
 48
3.0
100
AcDbVertex
100
AcDbPolygonMeshVertex
 10
55.0
 20
-202.980895
 30
0.0
 70
    64
  0
VERTEX
  5
1CC4
100
AcDbEntity
  8
V0-ZBYTEK
  6
CONTINUOUS
 48
3.0
100
AcDbVertex
100
AcDbPolygonMeshVertex
 10
52.966022
 20
-202.980895
 30
0.0
 70
    64
  0
VERTEX
  5
1CC5
100
AcDbEntity
  8
V0-ZBYTEK
  6
CONTINUOUS
 48
3.0
100
AcDbVertex
100
AcDbPolygonMeshVertex
 10
-55.0
 20
-202.980895
 30
0.0
 70
    64
  0
VERTEX
  5
1CC6
100
AcDbEntity
  8
V0-ZBYTEK
  6
CONTINUOUS
 48
3.0
100
AcDbVertex
100
AcDbPolygonMeshVertex
 10
-55.0
 20
-190.774723
 30
37.566732
 70
    64
  0
VERTEX
  5
1CC7
100
AcDbEntity
  8
V0-ZBYTEK
  6
CONTINUOUS
 48
3.0
100
AcDbVertex
100
AcDbPolygonMeshVertex
 10
-44.0
 20
-190.774723
 30
37.566732
 70
    64
  0
VERTEX
  5
1CC8
100
AcDbEntity
  8
V0-ZBYTEK
  6
CONTINUOUS
 48
3.0
100
AcDbVertex
100
AcDbPolygonMeshVertex
 10
-44.0
 20
-189.07513
 30
42.797543
 70
    64
  0
VERTEX
  5
1CC9
100
AcDbEntity
  8
V0-ZBYTEK
  6
CONTINUOUS
 48
3.0
100
AcDbVertex
100
AcDbPolygonMeshVertex
 10
-43.5
 20
-189.07513
 30
42.797543
 70
    64
  0
VERTEX
  5
1CCA
100
AcDbEntity
  8
V0-ZBYTEK
  6
CONTINUOUS
 48
3.0
100
AcDbVertex
100
AcDbPolygonMeshVertex
 10
-43.5
 20
-190.774723
 30
37.566732
 70
    64
  0
VERTEX
  5
1CCB
100
AcDbEntity
  8
V0-ZBYTEK
  6
CONTINUOUS
 48
3.0
100
AcDbVertex
100
AcDbPolygonMeshVertex
 10
-35.0
 20
-190.774723
 30
37.566732
 70
    64
  0
VERTEX
  5
1CCC
100
AcDbEntity
  8
V0-ZBYTEK
  6
CONTINUOUS
 48
3.0
100
AcDbVertex
100
AcDbPolygonMeshVertex
 10
-35.0
 20
-190.311198
 30
38.993317
 70
    64
  0
VERTEX
  5
1CCD
100
AcDbEntity
  8
V0-ZBYTEK
  6
CONTINUOUS
 48
3.0
100
AcDbVertex
100
AcDbPolygonMeshVertex
 10
-25.0
 20
-190.311198
 30
38.993317
 70
    64
  0
VERTEX
  5
1CCE
100
AcDbEntity
  8
V0-ZBYTEK
  6
CONTINUOUS
 48
3.0
100
AcDbVertex
100
AcDbPolygonMeshVertex
 10
-25.0
 20
-190.002181
 30
39.944374
 70
    64
  0
VERTEX
  5
1CCF
100
AcDbEntity
  8
V0-ZBYTEK
  6
CONTINUOUS
 48
3.0
100
AcDbVertex
100
AcDbPolygonMeshVertex
 10
-22.0
 20
-190.002181
 30
39.944374
 70
    64
  0
VERTEX
  5
1CD0
100
AcDbEntity
  8
V0-ZBYTEK
  6
CONTINUOUS
 48
3.0
100
AcDbVertex
100
AcDbPolygonMeshVertex
 10
-22.0
 20
-190.311198
 30
38.993317
 70
    64
  0
VERTEX
  5
1CD1
100
AcDbEntity
  8
V0-ZBYTEK
  6
CONTINUOUS
 48
3.0
100
AcDbVertex
100
AcDbPolygonMeshVertex
 10
-5.0
 20
-190.311198
 30
38.993317
 70
    64
  0
VERTEX
  5
1CD2
100
AcDbEntity
  8
V0-ZBYTEK
  6
CONTINUOUS
 48
3.0
100
AcDbVertex
100
AcDbPolygonMeshVertex
 10
-5.0
 20
-183.667332
 30
59.441032
 70
    64
  0
VERTEX
  5
1CD3
100
AcDbEntity
  8
V0-ZBYTEK
  6
CONTINUOUS
 48
3.0
100
AcDbVertex
100
AcDbPolygonMeshVertex
 10
5.0
 20
-183.667332
 30
59.441032
 70
    64
  0
VERTEX
  5
1CD4
100
AcDbEntity
  8
V0-ZBYTEK
  6
CONTINUOUS
 48
3.0
100
AcDbVertex
100
AcDbPolygonMeshVertex
 10
5.0
 20
-190.311198
 30
38.993317
 70
    64
  0
VERTEX
  5
1CD5
100
AcDbEntity
  8
V0-ZBYTEK
  6
CONTINUOUS
 48
3.0
100
AcDbVertex
100
AcDbPolygonMeshVertex
 10
22.0
 20
-190.311198
 30
38.993317
 70
    64
  0
VERTEX
  5
1CD6
100
AcDbEntity
  8
V0-ZBYTEK
  6
CONTINUOUS
 48
3.0
100
AcDbVertex
100
AcDbPolygonMeshVertex
 10
22.0
 20
-190.002181
 30
39.944374
 70
    64
  0
VERTEX
  5
1CD7
100
AcDbEntity
  8
V0-ZBYTEK
  6
CONTINUOUS
 48
3.0
100
AcDbVertex
100
AcDbPolygonMeshVertex
 10
25.0
 20
-190.002181
 30
39.944374
 70
    64
  0
VERTEX
  5
1CD8
100
AcDbEntity
  8
V0-ZBYTEK
  6
CONTINUOUS
 48
3.0
100
AcDbVertex
100
AcDbPolygonMeshVertex
 10
25.0
 20
-190.311198
 30
38.993317
 70
    64
  0
VERTEX
  5
1CD9
100
AcDbEntity
  8
V0-ZBYTEK
  6
CONTINUOUS
 48
3.0
100
AcDbVertex
100
AcDbPolygonMeshVertex
 10
35.0
 20
-190.311198
 30
38.993317
 70
    64
  0
VERTEX
  5
1CDA
100
AcDbEntity
  8
V0-ZBYTEK
  6
CONTINUOUS
 48
3.0
100
AcDbVertex
100
AcDbPolygonMeshVertex
 10
35.0
 20
-190.774723
 30
37.566732
 70
    64
  0
VERTEX
  5
1CDB
100
AcDbEntity
  8
V0-ZBYTEK
  6
CONTINUOUS
 48
3.0
100
AcDbVertex
100
AcDbPolygonMeshVertex
 10
43.5
 20
-190.774723
 30
37.566732
 70
    64
  0
VERTEX
  5
1CDC
100
AcDbEntity
  8
V0-ZBYTEK
  6
CONTINUOUS
 48
3.0
100
AcDbVertex
100
AcDbPolygonMeshVertex
 10
43.5
 20
-189.07513
 30
42.797543
 70
    64
  0
VERTEX
  5
1CDD
100
AcDbEntity
  8
V0-ZBYTEK
  6
CONTINUOUS
 48
3.0
100
AcDbVertex
100
AcDbPolygonMeshVertex
 10
44.0
 20
-189.07513
 30
42.797543
 70
    64
  0
VERTEX
  5
1CDE
100
AcDbEntity
  8
V0-ZBYTEK
  6
CONTINUOUS
 48
3.0
100
AcDbVertex
100
AcDbPolygonMeshVertex
 10
44.0
 20
-190.774723
 30
37.566732
 70
    64
  0
VERTEX
  5
1CDF
100
AcDbEntity
  8
V0-ZBYTEK
  6
CONTINUOUS
 48
3.0
100
AcDbVertex
100
AcDbPolygonMeshVertex
 10
55.0
 20
-190.774723
 30
37.566732
 70
    64
  0
VERTEX
  5
1CE0
100
AcDbEntity
  8
V0-ZBYTEK
  6
CONTINUOUS
 48
3.0
100
AcDbVertex
100
AcDbPolygonMeshVertex
 10
55.0
 20
-202.980895
 30
0.0
 70
    64
  0
VERTEX
  5
1CE1
100
AcDbEntity
  8
V0-ZBYTEK
  6
CONTINUOUS
 48
3.0
100
AcDbVertex
100
AcDbPolygonMeshVertex
 10
52.966022
 20
-202.980895
 30
0.0
 70
    64
  0
VERTEX
  5
1CE2
100
AcDbEntity
  8
V0-ZBYTEK
  6
CONTINUOUS
 48
3.0
100
AcDbVertex
100
AcDbPolygonMeshVertex
 10
-55.0
 20
-202.980895
 30
0.0
 70
    64
  0
VERTEX
  5
1CE3
100
AcDbEntity
  8
V0-ZBYTEK
  6
CONTINUOUS
 48
3.0
100
AcDbVertex
100
AcDbPolygonMeshVertex
 10
-55.0
 20
-207.109769
 30
39.283615
 70
    64
  0
VERTEX
  5
1CE4
100
AcDbEntity
  8
V0-ZBYTEK
  6
CONTINUOUS
 48
3.0
100
AcDbVertex
100
AcDbPolygonMeshVertex
 10
-44.0
 20
-207.109769
 30
39.283615
 70
    64
  0
VERTEX
  5
1CE5
100
AcDbEntity
  8
V0-ZBYTEK
  6
CONTINUOUS
 48
3.0
100
AcDbVertex
100
AcDbPolygonMeshVertex
 10
-44.0
 20
-207.684675
 30
44.753485
 70
    64
  0
VERTEX
  5
1CE6
100
AcDbEntity
  8
V0-ZBYTEK
  6
CONTINUOUS
 48
3.0
100
AcDbVertex
100
AcDbPolygonMeshVertex
 10
-43.5
 20
-207.684675
 30
44.753485
 70
    64
  0
VERTEX
  5
1CE7
100
AcDbEntity
  8
V0-ZBYTEK
  6
CONTINUOUS
 48
3.0
100
AcDbVertex
100
AcDbPolygonMeshVertex
 10
-43.5
 20
-207.109769
 30
39.283615
 70
    64
  0
VERTEX
  5
1CE8
100
AcDbEntity
  8
V0-ZBYTEK
  6
CONTINUOUS
 48
3.0
100
AcDbVertex
100
AcDbPolygonMeshVertex
 10
-35.0
 20
-207.109769
 30
39.283615
 70
    64
  0
VERTEX
  5
1CE9
100
AcDbEntity
  8
V0-ZBYTEK
  6
CONTINUOUS
 48
3.0
100
AcDbVertex
100
AcDbPolygonMeshVertex
 10
-35.0
 20
-207.266562
 30
40.775398
 70
    64
  0
VERTEX
  5
1CEA
100
AcDbEntity
  8
V0-ZBYTEK
  6
CONTINUOUS
 48
3.0
100
AcDbVertex
100
AcDbPolygonMeshVertex
 10
-25.0
 20
-207.266562
 30
40.775398
 70
    64
  0
VERTEX
  5
1CEB
100
AcDbEntity
  8
V0-ZBYTEK
  6
CONTINUOUS
 48
3.0
100
AcDbVertex
100
AcDbPolygonMeshVertex
 10
-25.0
 20
-207.37109
 30
41.76992
 70
    64
  0
VERTEX
  5
1CEC
100
AcDbEntity
  8
V0-ZBYTEK
  6
CONTINUOUS
 48
3.0
100
AcDbVertex
100
AcDbPolygonMeshVertex
 10
-22.0
 20
-207.37109
 30
41.76992
 70
    64
  0
VERTEX
  5
1CED
100
AcDbEntity
  8
V0-ZBYTEK
  6
CONTINUOUS
 48
3.0
100
AcDbVertex
100
AcDbPolygonMeshVertex
 10
-22.0
 20
-207.266562
 30
40.775398
 70
    64
  0
VERTEX
  5
1CEE
100
AcDbEntity
  8
V0-ZBYTEK
  6
CONTINUOUS
 48
3.0
100
AcDbVertex
100
AcDbPolygonMeshVertex
 10
-5.0
 20
-207.266562
 30
40.775398
 70
    64
  0
VERTEX
  5
1CEF
100
AcDbEntity
  8
V0-ZBYTEK
  6
CONTINUOUS
 48
3.0
100
AcDbVertex
100
AcDbPolygonMeshVertex
 10
-5.0
 20
-209.513924
 30
62.157618
 70
    64
  0
VERTEX
  5
1CF0
100
AcDbEntity
  8
V0-ZBYTEK
  6
CONTINUOUS
 48
3.0
100
AcDbVertex
100
AcDbPolygonMeshVertex
 10
5.0
 20
-209.513924
 30
62.157618
 70
    64
  0
VERTEX
  5
1CF1
100
AcDbEntity
  8
V0-ZBYTEK
  6
CONTINUOUS
 48
3.0
100
AcDbVertex
100
AcDbPolygonMeshVertex
 10
5.0
 20
-207.266562
 30
40.775398
 70
    64
  0
VERTEX
  5
1CF2
100
AcDbEntity
  8
V0-ZBYTEK
  6
CONTINUOUS
 48
3.0
100
AcDbVertex
100
AcDbPolygonMeshVertex
 10
22.0
 20
-207.266562
 30
40.775398
 70
    64
  0
VERTEX
  5
1CF3
100
AcDbEntity
  8
V0-ZBYTEK
  6
CONTINUOUS
 48
3.0
100
AcDbVertex
100
AcDbPolygonMeshVertex
 10
22.0
 20
-207.37109
 30
41.76992
 70
    64
  0
VERTEX
  5
1CF4
100
AcDbEntity
  8
V0-ZBYTEK
  6
CONTINUOUS
 48
3.0
100
AcDbVertex
100
AcDbPolygonMeshVertex
 10
25.0
 20
-207.37109
 30
41.76992
 70
    64
  0
VERTEX
  5
1CF5
100
AcDbEntity
  8
V0-ZBYTEK
  6
CONTINUOUS
 48
3.0
100
AcDbVertex
100
AcDbPolygonMeshVertex
 10
25.0
 20
-207.266562
 30
40.775398
 70
    64
  0
VERTEX
  5
1CF6
100
AcDbEntity
  8
V0-ZBYTEK
  6
CONTINUOUS
 48
3.0
100
AcDbVertex
100
AcDbPolygonMeshVertex
 10
35.0
 20
-207.266562
 30
40.775398
 70
    64
  0
VERTEX
  5
1CF7
100
AcDbEntity
  8
V0-ZBYTEK
  6
CONTINUOUS
 48
3.0
100
AcDbVertex
100
AcDbPolygonMeshVertex
 10
35.0
 20
-207.109769
 30
39.283615
 70
    64
  0
VERTEX
  5
1CF8
100
AcDbEntity
  8
V0-ZBYTEK
  6
CONTINUOUS
 48
3.0
100
AcDbVertex
100
AcDbPolygonMeshVertex
 10
43.5
 20
-207.109769
 30
39.283615
 70
    64
  0
VERTEX
  5
1CF9
100
AcDbEntity
  8
V0-ZBYTEK
  6
CONTINUOUS
 48
3.0
100
AcDbVertex
100
AcDbPolygonMeshVertex
 10
43.5
 20
-207.684675
 30
44.753485
 70
    64
  0
VERTEX
  5
1CFA
100
AcDbEntity
  8
V0-ZBYTEK
  6
CONTINUOUS
 48
3.0
100
AcDbVertex
100
AcDbPolygonMeshVertex
 10
44.0
 20
-207.684675
 30
44.753485
 70
    64
  0
VERTEX
  5
1CFB
100
AcDbEntity
  8
V0-ZBYTEK
  6
CONTINUOUS
 48
3.0
100
AcDbVertex
100
AcDbPolygonMeshVertex
 10
44.0
 20
-207.109769
 30
39.283615
 70
    64
  0
VERTEX
  5
1CFC
100
AcDbEntity
  8
V0-ZBYTEK
  6
CONTINUOUS
 48
3.0
100
AcDbVertex
100
AcDbPolygonMeshVertex
 10
55.0
 20
-207.109769
 30
39.283615
 70
    64
  0
VERTEX
  5
1CFD
100
AcDbEntity
  8
V0-ZBYTEK
  6
CONTINUOUS
 48
3.0
100
AcDbVertex
100
AcDbPolygonMeshVertex
 10
55.0
 20
-202.980895
 30
0.0
 70
    64
  0
VERTEX
  5
1CFE
100
AcDbEntity
  8
V0-ZBYTEK
  6
CONTINUOUS
 48
3.0
100
AcDbVertex
100
AcDbPolygonMeshVertex
 10
52.966022
 20
-202.980895
 30
0.0
 70
    64
  0
VERTEX
  5
1CFF
100
AcDbEntity
  8
V0-ZBYTEK
  6
CONTINUOUS
 48
3.0
100
AcDbVertex
100
AcDbPolygonMeshVertex
 10
-55.0
 20
-202.980895
 30
0.0
 70
    64
  0
VERTEX
  5
1D00
100
AcDbEntity
  8
V0-ZBYTEK
  6
CONTINUOUS
 48
3.0
100
AcDbVertex
100
AcDbPolygonMeshVertex
 10
-55.0
 20
-222.730895
 30
34.208003
 70
    64
  0
VERTEX
  5
1D01
100
AcDbEntity
  8
V0-ZBYTEK
  6
CONTINUOUS
 48
3.0
100
AcDbVertex
100
AcDbPolygonMeshVertex
 10
-44.0
 20
-222.730895
 30
34.208003
 70
    64
  0
VERTEX
  5
1D02
100
AcDbEntity
  8
V0-ZBYTEK
  6
CONTINUOUS
 48
3.0
100
AcDbVertex
100
AcDbPolygonMeshVertex
 10
-44.0
 20
-225.480895
 30
38.971143
 70
    64
  0
VERTEX
  5
1D03
100
AcDbEntity
  8
V0-ZBYTEK
  6
CONTINUOUS
 48
3.0
100
AcDbVertex
100
AcDbPolygonMeshVertex
 10
-43.5
 20
-225.480895
 30
38.971143
 70
    64
  0
VERTEX
  5
1D04
100
AcDbEntity
  8
V0-ZBYTEK
  6
CONTINUOUS
 48
3.0
100
AcDbVertex
100
AcDbPolygonMeshVertex
 10
-43.5
 20
-222.730895
 30
34.208003
 70
    64
  0
VERTEX
  5
1D05
100
AcDbEntity
  8
V0-ZBYTEK
  6
CONTINUOUS
 48
3.0
100
AcDbVertex
100
AcDbPolygonMeshVertex
 10
-35.0
 20
-222.730895
 30
34.208003
 70
    64
  0
VERTEX
  5
1D06
100
AcDbEntity
  8
V0-ZBYTEK
  6
CONTINUOUS
 48
3.0
100
AcDbVertex
100
AcDbPolygonMeshVertex
 10
-35.0
 20
-223.480895
 30
35.507042
 70
    64
  0
VERTEX
  5
1D07
100
AcDbEntity
  8
V0-ZBYTEK
  6
CONTINUOUS
 48
3.0
100
AcDbVertex
100
AcDbPolygonMeshVertex
 10
-25.0
 20
-223.480895
 30
35.507042
 70
    64
  0
VERTEX
  5
1D08
100
AcDbEntity
  8
V0-ZBYTEK
  6
CONTINUOUS
 48
3.0
100
AcDbVertex
100
AcDbPolygonMeshVertex
 10
-25.0
 20
-223.980895
 30
36.373067
 70
    64
  0
VERTEX
  5
1D09
100
AcDbEntity
  8
V0-ZBYTEK
  6
CONTINUOUS
 48
3.0
100
AcDbVertex
100
AcDbPolygonMeshVertex
 10
-22.0
 20
-223.980895
 30
36.373067
 70
    64
  0
VERTEX
  5
1D0A
100
AcDbEntity
  8
V0-ZBYTEK
  6
CONTINUOUS
 48
3.0
100
AcDbVertex
100
AcDbPolygonMeshVertex
 10
-22.0
 20
-223.480895
 30
35.507042
 70
    64
  0
VERTEX
  5
1D0B
100
AcDbEntity
  8
V0-ZBYTEK
  6
CONTINUOUS
 48
3.0
100
AcDbVertex
100
AcDbPolygonMeshVertex
 10
-5.0
 20
-223.480895
 30
35.507042
 70
    64
  0
VERTEX
  5
1D0C
100
AcDbEntity
  8
V0-ZBYTEK
  6
CONTINUOUS
 48
3.0
100
AcDbVertex
100
AcDbPolygonMeshVertex
 10
-5.0
 20
-234.230895
 30
54.126588
 70
    64
  0
VERTEX
  5
1D0D
100
AcDbEntity
  8
V0-ZBYTEK
  6
CONTINUOUS
 48
3.0
100
AcDbVertex
100
AcDbPolygonMeshVertex
 10
5.0
 20
-234.230895
 30
54.126588
 70
    64
  0
VERTEX
  5
1D0E
100
AcDbEntity
  8
V0-ZBYTEK
  6
CONTINUOUS
 48
3.0
100
AcDbVertex
100
AcDbPolygonMeshVertex
 10
5.0
 20
-223.480895
 30
35.507042
 70
    64
  0
VERTEX
  5
1D0F
100
AcDbEntity
  8
V0-ZBYTEK
  6
CONTINUOUS
 48
3.0
100
AcDbVertex
100
AcDbPolygonMeshVertex
 10
22.0
 20
-223.480895
 30
35.507042
 70
    64
  0
VERTEX
  5
1D10
100
AcDbEntity
  8
V0-ZBYTEK
  6
CONTINUOUS
 48
3.0
100
AcDbVertex
100
AcDbPolygonMeshVertex
 10
22.0
 20
-223.980895
 30
36.373067
 70
    64
  0
VERTEX
  5
1D11
100
AcDbEntity
  8
V0-ZBYTEK
  6
CONTINUOUS
 48
3.0
100
AcDbVertex
100
AcDbPolygonMeshVertex
 10
25.0
 20
-223.980895
 30
36.373067
 70
    64
  0
VERTEX
  5
1D12
100
AcDbEntity
  8
V0-ZBYTEK
  6
CONTINUOUS
 48
3.0
100
AcDbVertex
100
AcDbPolygonMeshVertex
 10
25.0
 20
-223.480895
 30
35.507042
 70
    64
  0
VERTEX
  5
1D13
100
AcDbEntity
  8
V0-ZBYTEK
  6
CONTINUOUS
 48
3.0
100
AcDbVertex
100
AcDbPolygonMeshVertex
 10
35.0
 20
-223.480895
 30
35.507042
 70
    64
  0
VERTEX
  5
1D14
100
AcDbEntity
  8
V0-ZBYTEK
  6
CONTINUOUS
 48
3.0
100
AcDbVertex
100
AcDbPolygonMeshVertex
 10
35.0
 20
-222.730895
 30
34.208003
 70
    64
  0
VERTEX
  5
1D15
100
AcDbEntity
  8
V0-ZBYTEK
  6
CONTINUOUS
 48
3.0
100
AcDbVertex
100
AcDbPolygonMeshVertex
 10
43.5
 20
-222.730895
 30
34.208003
 70
    64
  0
VERTEX
  5
1D16
100
AcDbEntity
  8
V0-ZBYTEK
  6
CONTINUOUS
 48
3.0
100
AcDbVertex
100
AcDbPolygonMeshVertex
 10
43.5
 20
-225.480895
 30
38.971143
 70
    64
  0
VERTEX
  5
1D17
100
AcDbEntity
  8
V0-ZBYTEK
  6
CONTINUOUS
 48
3.0
100
AcDbVertex
100
AcDbPolygonMeshVertex
 10
44.0
 20
-225.480895
 30
38.971143
 70
    64
  0
VERTEX
  5
1D18
100
AcDbEntity
  8
V0-ZBYTEK
  6
CONTINUOUS
 48
3.0
100
AcDbVertex
100
AcDbPolygonMeshVertex
 10
44.0
 20
-222.730895
 30
34.208003
 70
    64
  0
VERTEX
  5
1D19
100
AcDbEntity
  8
V0-ZBYTEK
  6
CONTINUOUS
 48
3.0
100
AcDbVertex
100
AcDbPolygonMeshVertex
 10
55.0
 20
-222.730895
 30
34.208003
 70
    64
  0
VERTEX
  5
1D1A
100
AcDbEntity
  8
V0-ZBYTEK
  6
CONTINUOUS
 48
3.0
100
AcDbVertex
100
AcDbPolygonMeshVertex
 10
55.0
 20
-202.980895
 30
0.0
 70
    64
  0
VERTEX
  5
1D1B
100
AcDbEntity
  8
V0-ZBYTEK
  6
CONTINUOUS
 48
3.0
100
AcDbVertex
100
AcDbPolygonMeshVertex
 10
52.966022
 20
-202.980895
 30
0.0
 70
    64
  0
VERTEX
  5
1D1C
100
AcDbEntity
  8
V0-ZBYTEK
  6
CONTINUOUS
 48
3.0
100
AcDbVertex
100
AcDbPolygonMeshVertex
 10
-55.0
 20
-202.980895
 30
0.0
 70
    64
  0
VERTEX
  5
1D1D
100
AcDbEntity
  8
V0-ZBYTEK
  6
CONTINUOUS
 48
3.0
100
AcDbVertex
100
AcDbPolygonMeshVertex
 10
-55.0
 20
-234.937066
 30
23.217517
 70
    64
  0
VERTEX
  5
1D1E
100
AcDbEntity
  8
V0-ZBYTEK
  6
CONTINUOUS
 48
3.0
100
AcDbVertex
100
AcDbPolygonMeshVertex
 10
-44.0
 20
-234.937066
 30
23.217517
 70
    64
  0
VERTEX
  5
1D1F
100
AcDbEntity
  8
V0-ZBYTEK
  6
CONTINUOUS
 48
3.0
100
AcDbVertex
100
AcDbPolygonMeshVertex
 10
-44.0
 20
-239.386659
 30
26.450336
 70
    64
  0
VERTEX
  5
1D20
100
AcDbEntity
  8
V0-ZBYTEK
  6
CONTINUOUS
 48
3.0
100
AcDbVertex
100
AcDbPolygonMeshVertex
 10
-43.5
 20
-239.386659
 30
26.450336
 70
    64
  0
VERTEX
  5
1D21
100
AcDbEntity
  8
V0-ZBYTEK
  6
CONTINUOUS
 48
3.0
100
AcDbVertex
100
AcDbPolygonMeshVertex
 10
-43.5
 20
-234.937066
 30
23.217517
 70
    64
  0
VERTEX
  5
1D22
100
AcDbEntity
  8
V0-ZBYTEK
  6
CONTINUOUS
 48
3.0
100
AcDbVertex
100
AcDbPolygonMeshVertex
 10
-35.0
 20
-234.937066
 30
23.217517
 70
    64
  0
VERTEX
  5
1D23
100
AcDbEntity
  8
V0-ZBYTEK
  6
CONTINUOUS
 48
3.0
100
AcDbVertex
100
AcDbPolygonMeshVertex
 10
-35.0
 20
-236.150591
 30
24.099195
 70
    64
  0
VERTEX
  5
1D24
100
AcDbEntity
  8
V0-ZBYTEK
  6
CONTINUOUS
 48
3.0
100
AcDbVertex
100
AcDbPolygonMeshVertex
 10
-25.0
 20
-236.150591
 30
24.099195
 70
    64
  0
VERTEX
  5
1D25
100
AcDbEntity
  8
V0-ZBYTEK
  6
CONTINUOUS
 48
3.0
100
AcDbVertex
100
AcDbPolygonMeshVertex
 10
-25.0
 20
-236.959608
 30
24.686981
 70
    64
  0
VERTEX
  5
1D26
100
AcDbEntity
  8
V0-ZBYTEK
  6
CONTINUOUS
 48
3.0
100
AcDbVertex
100
AcDbPolygonMeshVertex
 10
-22.0
 20
-236.959608
 30
24.686981
 70
    64
  0
VERTEX
  5
1D27
100
AcDbEntity
  8
V0-ZBYTEK
  6
CONTINUOUS
 48
3.0
100
AcDbVertex
100
AcDbPolygonMeshVertex
 10
-22.0
 20
-236.150591
 30
24.099195
 70
    64
  0
VERTEX
  5
1D28
100
AcDbEntity
  8
V0-ZBYTEK
  6
CONTINUOUS
 48
3.0
100
AcDbVertex
100
AcDbPolygonMeshVertex
 10
-5.0
 20
-236.150591
 30
24.099195
 70
    64
  0
VERTEX
  5
1D29
100
AcDbEntity
  8
V0-ZBYTEK
  6
CONTINUOUS
 48
3.0
100
AcDbVertex
100
AcDbPolygonMeshVertex
 10
-5.0
 20
-253.544457
 30
36.736578
 70
    64
  0
VERTEX
  5
1D2A
100
AcDbEntity
  8
V0-ZBYTEK
  6
CONTINUOUS
 48
3.0
100
AcDbVertex
100
AcDbPolygonMeshVertex
 10
5.0
 20
-253.544457
 30
36.736578
 70
    64
  0
VERTEX
  5
1D2B
100
AcDbEntity
  8
V0-ZBYTEK
  6
CONTINUOUS
 48
3.0
100
AcDbVertex
100
AcDbPolygonMeshVertex
 10
5.0
 20
-236.150591
 30
24.099195
 70
    64
  0
VERTEX
  5
1D2C
100
AcDbEntity
  8
V0-ZBYTEK
  6
CONTINUOUS
 48
3.0
100
AcDbVertex
100
AcDbPolygonMeshVertex
 10
22.0
 20
-236.150591
 30
24.099195
 70
    64
  0
VERTEX
  5
1D2D
100
AcDbEntity
  8
V0-ZBYTEK
  6
CONTINUOUS
 48
3.0
100
AcDbVertex
100
AcDbPolygonMeshVertex
 10
22.0
 20
-236.959608
 30
24.686981
 70
    64
  0
VERTEX
  5
1D2E
100
AcDbEntity
  8
V0-ZBYTEK
  6
CONTINUOUS
 48
3.0
100
AcDbVertex
100
AcDbPolygonMeshVertex
 10
25.0
 20
-236.959608
 30
24.686981
 70
    64
  0
VERTEX
  5
1D2F
100
AcDbEntity
  8
V0-ZBYTEK
  6
CONTINUOUS
 48
3.0
100
AcDbVertex
100
AcDbPolygonMeshVertex
 10
25.0
 20
-236.150591
 30
24.099195
 70
    64
  0
VERTEX
  5
1D30
100
AcDbEntity
  8
V0-ZBYTEK
  6
CONTINUOUS
 48
3.0
100
AcDbVertex
100
AcDbPolygonMeshVertex
 10
35.0
 20
-236.150591
 30
24.099195
 70
    64
  0
VERTEX
  5
1D31
100
AcDbEntity
  8
V0-ZBYTEK
  6
CONTINUOUS
 48
3.0
100
AcDbVertex
100
AcDbPolygonMeshVertex
 10
35.0
 20
-234.937066
 30
23.217517
 70
    64
  0
VERTEX
  5
1D32
100
AcDbEntity
  8
V0-ZBYTEK
  6
CONTINUOUS
 48
3.0
100
AcDbVertex
100
AcDbPolygonMeshVertex
 10
43.5
 20
-234.937066
 30
23.217517
 70
    64
  0
VERTEX
  5
1D33
100
AcDbEntity
  8
V0-ZBYTEK
  6
CONTINUOUS
 48
3.0
100
AcDbVertex
100
AcDbPolygonMeshVertex
 10
43.5
 20
-239.386659
 30
26.450336
 70
    64
  0
VERTEX
  5
1D34
100
AcDbEntity
  8
V0-ZBYTEK
  6
CONTINUOUS
 48
3.0
100
AcDbVertex
100
AcDbPolygonMeshVertex
 10
44.0
 20
-239.386659
 30
26.450336
 70
    64
  0
VERTEX
  5
1D35
100
AcDbEntity
  8
V0-ZBYTEK
  6
CONTINUOUS
 48
3.0
100
AcDbVertex
100
AcDbPolygonMeshVertex
 10
44.0
 20
-234.937066
 30
23.217517
 70
    64
  0
VERTEX
  5
1D36
100
AcDbEntity
  8
V0-ZBYTEK
  6
CONTINUOUS
 48
3.0
100
AcDbVertex
100
AcDbPolygonMeshVertex
 10
55.0
 20
-234.937066
 30
23.217517
 70
    64
  0
VERTEX
  5
1D37
100
AcDbEntity
  8
V0-ZBYTEK
  6
CONTINUOUS
 48
3.0
100
AcDbVertex
100
AcDbPolygonMeshVertex
 10
55.0
 20
-202.980895
 30
0.0
 70
    64
  0
VERTEX
  5
1D38
100
AcDbEntity
  8
V0-ZBYTEK
  6
CONTINUOUS
 48
3.0
100
AcDbVertex
100
AcDbPolygonMeshVertex
 10
52.966022
 20
-202.980895
 30
0.0
 70
    64
  0
VERTEX
  5
1D39
100
AcDbEntity
  8
V0-ZBYTEK
  6
CONTINUOUS
 48
3.0
100
AcDbVertex
100
AcDbPolygonMeshVertex
 10
-55.0
 20
-202.980895
 30
0.0
 70
    64
  0
VERTEX
  5
1D3A
100
AcDbEntity
  8
V0-ZBYTEK
  6
CONTINUOUS
 48
3.0
100
AcDbVertex
100
AcDbPolygonMeshVertex
 10
-55.0
 20
-241.617725
 30
8.212512
 70
    64
  0
VERTEX
  5
1D3B
100
AcDbEntity
  8
V0-ZBYTEK
  6
CONTINUOUS
 48
3.0
100
AcDbVertex
100
AcDbPolygonMeshVertex
 10
-44.0
 20
-241.617725
 30
8.212512
 70
    64
  0
VERTEX
  5
1D3C
100
AcDbEntity
  8
V0-ZBYTEK
  6
CONTINUOUS
 48
3.0
100
AcDbVertex
100
AcDbPolygonMeshVertex
 10
-44.0
 20
-246.997537
 30
9.356026
 70
    64
  0
VERTEX
  5
1D3D
100
AcDbEntity
  8
V0-ZBYTEK
  6
CONTINUOUS
 48
3.0
100
AcDbVertex
100
AcDbPolygonMeshVertex
 10
-43.5
 20
-246.997537
 30
9.356026
 70
    64
  0
VERTEX
  5
1D3E
100
AcDbEntity
  8
V0-ZBYTEK
  6
CONTINUOUS
 48
3.0
100
AcDbVertex
100
AcDbPolygonMeshVertex
 10
-43.5
 20
-241.617725
 30
8.212512
 70
    64
  0
VERTEX
  5
1D3F
100
AcDbEntity
  8
V0-ZBYTEK
  6
CONTINUOUS
 48
3.0
100
AcDbVertex
100
AcDbPolygonMeshVertex
 10
-35.0
 20
-241.617725
 30
8.212512
 70
    64
  0
VERTEX
  5
1D40
100
AcDbEntity
  8
V0-ZBYTEK
  6
CONTINUOUS
 48
3.0
100
AcDbVertex
100
AcDbPolygonMeshVertex
 10
-35.0
 20
-243.084946
 30
8.524379
 70
    64
  0
VERTEX
  5
1D41
100
AcDbEntity
  8
V0-ZBYTEK
  6
CONTINUOUS
 48
3.0
100
AcDbVertex
100
AcDbPolygonMeshVertex
 10
-25.0
 20
-243.084946
 30
8.524379
 70
    64
  0
VERTEX
  5
1D42
100
AcDbEntity
  8
V0-ZBYTEK
  6
CONTINUOUS
 48
3.0
100
AcDbVertex
100
AcDbPolygonMeshVertex
 10
-25.0
 20
-244.063094
 30
8.732291
 70
    64
  0
VERTEX
  5
1D43
100
AcDbEntity
  8
V0-ZBYTEK
  6
CONTINUOUS
 48
3.0
100
AcDbVertex
100
AcDbPolygonMeshVertex
 10
-22.0
 20
-244.063094
 30
8.732291
 70
    64
  0
VERTEX
  5
1D44
100
AcDbEntity
  8
V0-ZBYTEK
  6
CONTINUOUS
 48
3.0
100
AcDbVertex
100
AcDbPolygonMeshVertex
 10
-22.0
 20
-243.084946
 30
8.524379
 70
    64
  0
VERTEX
  5
1D45
100
AcDbEntity
  8
V0-ZBYTEK
  6
CONTINUOUS
 48
3.0
100
AcDbVertex
100
AcDbPolygonMeshVertex
 10
-5.0
 20
-243.084946
 30
8.524379
 70
    64
  0
VERTEX
  5
1D46
100
AcDbEntity
  8
V0-ZBYTEK
  6
CONTINUOUS
 48
3.0
100
AcDbVertex
100
AcDbPolygonMeshVertex
 10
-5.0
 20
-264.11512
 30
12.994481
 70
    64
  0
VERTEX
  5
1D47
100
AcDbEntity
  8
V0-ZBYTEK
  6
CONTINUOUS
 48
3.0
100
AcDbVertex
100
AcDbPolygonMeshVertex
 10
5.0
 20
-264.11512
 30
12.994481
 70
    64
  0
VERTEX
  5
1D48
100
AcDbEntity
  8
V0-ZBYTEK
  6
CONTINUOUS
 48
3.0
100
AcDbVertex
100
AcDbPolygonMeshVertex
 10
5.0
 20
-243.084946
 30
8.524379
 70
    64
  0
VERTEX
  5
1D49
100
AcDbEntity
  8
V0-ZBYTEK
  6
CONTINUOUS
 48
3.0
100
AcDbVertex
100
AcDbPolygonMeshVertex
 10
22.0
 20
-243.084946
 30
8.524379
 70
    64
  0
VERTEX
  5
1D4A
100
AcDbEntity
  8
V0-ZBYTEK
  6
CONTINUOUS
 48
3.0
100
AcDbVertex
100
AcDbPolygonMeshVertex
 10
22.0
 20
-244.063094
 30
8.732291
 70
    64
  0
VERTEX
  5
1D4B
100
AcDbEntity
  8
V0-ZBYTEK
  6
CONTINUOUS
 48
3.0
100
AcDbVertex
100
AcDbPolygonMeshVertex
 10
25.0
 20
-244.063094
 30
8.732291
 70
    64
  0
VERTEX
  5
1D4C
100
AcDbEntity
  8
V0-ZBYTEK
  6
CONTINUOUS
 48
3.0
100
AcDbVertex
100
AcDbPolygonMeshVertex
 10
25.0
 20
-243.084946
 30
8.524379
 70
    64
  0
VERTEX
  5
1D4D
100
AcDbEntity
  8
V0-ZBYTEK
  6
CONTINUOUS
 48
3.0
100
AcDbVertex
100
AcDbPolygonMeshVertex
 10
35.0
 20
-243.084946
 30
8.524379
 70
    64
  0
VERTEX
  5
1D4E
100
AcDbEntity
  8
V0-ZBYTEK
  6
CONTINUOUS
 48
3.0
100
AcDbVertex
100
AcDbPolygonMeshVertex
 10
35.0
 20
-241.617725
 30
8.212512
 70
    64
  0
VERTEX
  5
1D4F
100
AcDbEntity
  8
V0-ZBYTEK
  6
CONTINUOUS
 48
3.0
100
AcDbVertex
100
AcDbPolygonMeshVertex
 10
43.5
 20
-241.617725
 30
8.212512
 70
    64
  0
VERTEX
  5
1D50
100
AcDbEntity
  8
V0-ZBYTEK
  6
CONTINUOUS
 48
3.0
100
AcDbVertex
100
AcDbPolygonMeshVertex
 10
43.5
 20
-246.997537
 30
9.356026
 70
    64
  0
VERTEX
  5
1D51
100
AcDbEntity
  8
V0-ZBYTEK
  6
CONTINUOUS
 48
3.0
100
AcDbVertex
100
AcDbPolygonMeshVertex
 10
44.0
 20
-246.997537
 30
9.356026
 70
    64
  0
VERTEX
  5
1D52
100
AcDbEntity
  8
V0-ZBYTEK
  6
CONTINUOUS
 48
3.0
100
AcDbVertex
100
AcDbPolygonMeshVertex
 10
44.0
 20
-241.617725
 30
8.212512
 70
    64
  0
VERTEX
  5
1D53
100
AcDbEntity
  8
V0-ZBYTEK
  6
CONTINUOUS
 48
3.0
100
AcDbVertex
100
AcDbPolygonMeshVertex
 10
55.0
 20
-241.617725
 30
8.212512
 70
    64
  0
VERTEX
  5
1D54
100
AcDbEntity
  8
V0-ZBYTEK
  6
CONTINUOUS
 48
3.0
100
AcDbVertex
100
AcDbPolygonMeshVertex
 10
55.0
 20
-202.980895
 30
0.0
 70
    64
  0
VERTEX
  5
1D55
100
AcDbEntity
  8
V0-ZBYTEK
  6
CONTINUOUS
 48
3.0
100
AcDbVertex
100
AcDbPolygonMeshVertex
 10
52.966022
 20
-202.980895
 30
0.0
 70
    64
  0
VERTEX
  5
1D56
100
AcDbEntity
  8
V0-ZBYTEK
  6
CONTINUOUS
 48
3.0
100
AcDbVertex
100
AcDbPolygonMeshVertex
 10
-55.0
 20
-202.980895
 30
0.0
 70
    64
  0
VERTEX
  5
1D57
100
AcDbEntity
  8
V0-ZBYTEK
  6
CONTINUOUS
 48
3.0
100
AcDbVertex
100
AcDbPolygonMeshVertex
 10
-55.0
 20
-241.617725
 30
-8.212512
 70
    64
  0
VERTEX
  5
1D58
100
AcDbEntity
  8
V0-ZBYTEK
  6
CONTINUOUS
 48
3.0
100
AcDbVertex
100
AcDbPolygonMeshVertex
 10
-44.0
 20
-241.617725
 30
-8.212512
 70
    64
  0
VERTEX
  5
1D59
100
AcDbEntity
  8
V0-ZBYTEK
  6
CONTINUOUS
 48
3.0
100
AcDbVertex
100
AcDbPolygonMeshVertex
 10
-44.0
 20
-246.997537
 30
-9.356026
 70
    64
  0
VERTEX
  5
1D5A
100
AcDbEntity
  8
V0-ZBYTEK
  6
CONTINUOUS
 48
3.0
100
AcDbVertex
100
AcDbPolygonMeshVertex
 10
-43.5
 20
-246.997537
 30
-9.356026
 70
    64
  0
VERTEX
  5
1D5B
100
AcDbEntity
  8
V0-ZBYTEK
  6
CONTINUOUS
 48
3.0
100
AcDbVertex
100
AcDbPolygonMeshVertex
 10
-43.5
 20
-241.617725
 30
-8.212512
 70
    64
  0
VERTEX
  5
1D5C
100
AcDbEntity
  8
V0-ZBYTEK
  6
CONTINUOUS
 48
3.0
100
AcDbVertex
100
AcDbPolygonMeshVertex
 10
-35.0
 20
-241.617725
 30
-8.212512
 70
    64
  0
VERTEX
  5
1D5D
100
AcDbEntity
  8
V0-ZBYTEK
  6
CONTINUOUS
 48
3.0
100
AcDbVertex
100
AcDbPolygonMeshVertex
 10
-35.0
 20
-243.084946
 30
-8.524379
 70
    64
  0
VERTEX
  5
1D5E
100
AcDbEntity
  8
V0-ZBYTEK
  6
CONTINUOUS
 48
3.0
100
AcDbVertex
100
AcDbPolygonMeshVertex
 10
-25.0
 20
-243.084946
 30
-8.524379
 70
    64
  0
VERTEX
  5
1D5F
100
AcDbEntity
  8
V0-ZBYTEK
  6
CONTINUOUS
 48
3.0
100
AcDbVertex
100
AcDbPolygonMeshVertex
 10
-25.0
 20
-244.063094
 30
-8.732291
 70
    64
  0
VERTEX
  5
1D60
100
AcDbEntity
  8
V0-ZBYTEK
  6
CONTINUOUS
 48
3.0
100
AcDbVertex
100
AcDbPolygonMeshVertex
 10
-22.0
 20
-244.063094
 30
-8.732291
 70
    64
  0
VERTEX
  5
1D61
100
AcDbEntity
  8
V0-ZBYTEK
  6
CONTINUOUS
 48
3.0
100
AcDbVertex
100
AcDbPolygonMeshVertex
 10
-22.0
 20
-243.084946
 30
-8.524379
 70
    64
  0
VERTEX
  5
1D62
100
AcDbEntity
  8
V0-ZBYTEK
  6
CONTINUOUS
 48
3.0
100
AcDbVertex
100
AcDbPolygonMeshVertex
 10
-5.0
 20
-243.084946
 30
-8.524379
 70
    64
  0
VERTEX
  5
1D63
100
AcDbEntity
  8
V0-ZBYTEK
  6
CONTINUOUS
 48
3.0
100
AcDbVertex
100
AcDbPolygonMeshVertex
 10
-5.0
 20
-264.11512
 30
-12.994481
 70
    64
  0
VERTEX
  5
1D64
100
AcDbEntity
  8
V0-ZBYTEK
  6
CONTINUOUS
 48
3.0
100
AcDbVertex
100
AcDbPolygonMeshVertex
 10
5.0
 20
-264.11512
 30
-12.994481
 70
    64
  0
VERTEX
  5
1D65
100
AcDbEntity
  8
V0-ZBYTEK
  6
CONTINUOUS
 48
3.0
100
AcDbVertex
100
AcDbPolygonMeshVertex
 10
5.0
 20
-243.084946
 30
-8.524379
 70
    64
  0
VERTEX
  5
1D66
100
AcDbEntity
  8
V0-ZBYTEK
  6
CONTINUOUS
 48
3.0
100
AcDbVertex
100
AcDbPolygonMeshVertex
 10
22.0
 20
-243.084946
 30
-8.524379
 70
    64
  0
VERTEX
  5
1D67
100
AcDbEntity
  8
V0-ZBYTEK
  6
CONTINUOUS
 48
3.0
100
AcDbVertex
100
AcDbPolygonMeshVertex
 10
22.0
 20
-244.063094
 30
-8.732291
 70
    64
  0
VERTEX
  5
1D68
100
AcDbEntity
  8
V0-ZBYTEK
  6
CONTINUOUS
 48
3.0
100
AcDbVertex
100
AcDbPolygonMeshVertex
 10
25.0
 20
-244.063094
 30
-8.732291
 70
    64
  0
VERTEX
  5
1D69
100
AcDbEntity
  8
V0-ZBYTEK
  6
CONTINUOUS
 48
3.0
100
AcDbVertex
100
AcDbPolygonMeshVertex
 10
25.0
 20
-243.084946
 30
-8.524379
 70
    64
  0
VERTEX
  5
1D6A
100
AcDbEntity
  8
V0-ZBYTEK
  6
CONTINUOUS
 48
3.0
100
AcDbVertex
100
AcDbPolygonMeshVertex
 10
35.0
 20
-243.084946
 30
-8.524379
 70
    64
  0
VERTEX
  5
1D6B
100
AcDbEntity
  8
V0-ZBYTEK
  6
CONTINUOUS
 48
3.0
100
AcDbVertex
100
AcDbPolygonMeshVertex
 10
35.0
 20
-241.617725
 30
-8.212512
 70
    64
  0
VERTEX
  5
1D6C
100
AcDbEntity
  8
V0-ZBYTEK
  6
CONTINUOUS
 48
3.0
100
AcDbVertex
100
AcDbPolygonMeshVertex
 10
43.5
 20
-241.617725
 30
-8.212512
 70
    64
  0
VERTEX
  5
1D6D
100
AcDbEntity
  8
V0-ZBYTEK
  6
CONTINUOUS
 48
3.0
100
AcDbVertex
100
AcDbPolygonMeshVertex
 10
43.5
 20
-246.997537
 30
-9.356026
 70
    64
  0
VERTEX
  5
1D6E
100
AcDbEntity
  8
V0-ZBYTEK
  6
CONTINUOUS
 48
3.0
100
AcDbVertex
100
AcDbPolygonMeshVertex
 10
44.0
 20
-246.997537
 30
-9.356026
 70
    64
  0
VERTEX
  5
1D6F
100
AcDbEntity
  8
V0-ZBYTEK
  6
CONTINUOUS
 48
3.0
100
AcDbVertex
100
AcDbPolygonMeshVertex
 10
44.0
 20
-241.617725
 30
-8.212512
 70
    64
  0
VERTEX
  5
1D70
100
AcDbEntity
  8
V0-ZBYTEK
  6
CONTINUOUS
 48
3.0
100
AcDbVertex
100
AcDbPolygonMeshVertex
 10
55.0
 20
-241.617725
 30
-8.212512
 70
    64
  0
VERTEX
  5
1D71
100
AcDbEntity
  8
V0-ZBYTEK
  6
CONTINUOUS
 48
3.0
100
AcDbVertex
100
AcDbPolygonMeshVertex
 10
55.0
 20
-202.980895
 30
0.0
 70
    64
  0
VERTEX
  5
1D72
100
AcDbEntity
  8
V0-ZBYTEK
  6
CONTINUOUS
 48
3.0
100
AcDbVertex
100
AcDbPolygonMeshVertex
 10
52.966022
 20
-202.980895
 30
0.0
 70
    64
  0
VERTEX
  5
1D73
100
AcDbEntity
  8
V0-ZBYTEK
  6
CONTINUOUS
 48
3.0
100
AcDbVertex
100
AcDbPolygonMeshVertex
 10
-55.0
 20
-202.980895
 30
0.0
 70
    64
  0
VERTEX
  5
1D74
100
AcDbEntity
  8
V0-ZBYTEK
  6
CONTINUOUS
 48
3.0
100
AcDbVertex
100
AcDbPolygonMeshVertex
 10
-55.0
 20
-234.937066
 30
-23.217517
 70
    64
  0
VERTEX
  5
1D75
100
AcDbEntity
  8
V0-ZBYTEK
  6
CONTINUOUS
 48
3.0
100
AcDbVertex
100
AcDbPolygonMeshVertex
 10
-44.0
 20
-234.937066
 30
-23.217517
 70
    64
  0
VERTEX
  5
1D76
100
AcDbEntity
  8
V0-ZBYTEK
  6
CONTINUOUS
 48
3.0
100
AcDbVertex
100
AcDbPolygonMeshVertex
 10
-44.0
 20
-239.386659
 30
-26.450336
 70
    64
  0
VERTEX
  5
1D77
100
AcDbEntity
  8
V0-ZBYTEK
  6
CONTINUOUS
 48
3.0
100
AcDbVertex
100
AcDbPolygonMeshVertex
 10
-43.5
 20
-239.386659
 30
-26.450336
 70
    64
  0
VERTEX
  5
1D78
100
AcDbEntity
  8
V0-ZBYTEK
  6
CONTINUOUS
 48
3.0
100
AcDbVertex
100
AcDbPolygonMeshVertex
 10
-43.5
 20
-234.937066
 30
-23.217517
 70
    64
  0
VERTEX
  5
1D79
100
AcDbEntity
  8
V0-ZBYTEK
  6
CONTINUOUS
 48
3.0
100
AcDbVertex
100
AcDbPolygonMeshVertex
 10
-35.0
 20
-234.937066
 30
-23.217517
 70
    64
  0
VERTEX
  5
1D7A
100
AcDbEntity
  8
V0-ZBYTEK
  6
CONTINUOUS
 48
3.0
100
AcDbVertex
100
AcDbPolygonMeshVertex
 10
-35.0
 20
-236.150591
 30
-24.099195
 70
    64
  0
VERTEX
  5
1D7B
100
AcDbEntity
  8
V0-ZBYTEK
  6
CONTINUOUS
 48
3.0
100
AcDbVertex
100
AcDbPolygonMeshVertex
 10
-25.0
 20
-236.150591
 30
-24.099195
 70
    64
  0
VERTEX
  5
1D7C
100
AcDbEntity
  8
V0-ZBYTEK
  6
CONTINUOUS
 48
3.0
100
AcDbVertex
100
AcDbPolygonMeshVertex
 10
-25.0
 20
-236.959608
 30
-24.686981
 70
    64
  0
VERTEX
  5
1D7D
100
AcDbEntity
  8
V0-ZBYTEK
  6
CONTINUOUS
 48
3.0
100
AcDbVertex
100
AcDbPolygonMeshVertex
 10
-22.0
 20
-236.959608
 30
-24.686981
 70
    64
  0
VERTEX
  5
1D7E
100
AcDbEntity
  8
V0-ZBYTEK
  6
CONTINUOUS
 48
3.0
100
AcDbVertex
100
AcDbPolygonMeshVertex
 10
-22.0
 20
-236.150591
 30
-24.099195
 70
    64
  0
VERTEX
  5
1D7F
100
AcDbEntity
  8
V0-ZBYTEK
  6
CONTINUOUS
 48
3.0
100
AcDbVertex
100
AcDbPolygonMeshVertex
 10
-5.0
 20
-236.150591
 30
-24.099195
 70
    64
  0
VERTEX
  5
1D80
100
AcDbEntity
  8
V0-ZBYTEK
  6
CONTINUOUS
 48
3.0
100
AcDbVertex
100
AcDbPolygonMeshVertex
 10
-5.0
 20
-253.544457
 30
-36.736578
 70
    64
  0
VERTEX
  5
1D81
100
AcDbEntity
  8
V0-ZBYTEK
  6
CONTINUOUS
 48
3.0
100
AcDbVertex
100
AcDbPolygonMeshVertex
 10
5.0
 20
-253.544457
 30
-36.736578
 70
    64
  0
VERTEX
  5
1D82
100
AcDbEntity
  8
V0-ZBYTEK
  6
CONTINUOUS
 48
3.0
100
AcDbVertex
100
AcDbPolygonMeshVertex
 10
5.0
 20
-236.150591
 30
-24.099195
 70
    64
  0
VERTEX
  5
1D83
100
AcDbEntity
  8
V0-ZBYTEK
  6
CONTINUOUS
 48
3.0
100
AcDbVertex
100
AcDbPolygonMeshVertex
 10
22.0
 20
-236.150591
 30
-24.099195
 70
    64
  0
VERTEX
  5
1D84
100
AcDbEntity
  8
V0-ZBYTEK
  6
CONTINUOUS
 48
3.0
100
AcDbVertex
100
AcDbPolygonMeshVertex
 10
22.0
 20
-236.959608
 30
-24.686981
 70
    64
  0
VERTEX
  5
1D85
100
AcDbEntity
  8
V0-ZBYTEK
  6
CONTINUOUS
 48
3.0
100
AcDbVertex
100
AcDbPolygonMeshVertex
 10
25.0
 20
-236.959608
 30
-24.686981
 70
    64
  0
VERTEX
  5
1D86
100
AcDbEntity
  8
V0-ZBYTEK
  6
CONTINUOUS
 48
3.0
100
AcDbVertex
100
AcDbPolygonMeshVertex
 10
25.0
 20
-236.150591
 30
-24.099195
 70
    64
  0
VERTEX
  5
1D87
100
AcDbEntity
  8
V0-ZBYTEK
  6
CONTINUOUS
 48
3.0
100
AcDbVertex
100
AcDbPolygonMeshVertex
 10
35.0
 20
-236.150591
 30
-24.099195
 70
    64
  0
VERTEX
  5
1D88
100
AcDbEntity
  8
V0-ZBYTEK
  6
CONTINUOUS
 48
3.0
100
AcDbVertex
100
AcDbPolygonMeshVertex
 10
35.0
 20
-234.937066
 30
-23.217517
 70
    64
  0
VERTEX
  5
1D89
100
AcDbEntity
  8
V0-ZBYTEK
  6
CONTINUOUS
 48
3.0
100
AcDbVertex
100
AcDbPolygonMeshVertex
 10
43.5
 20
-234.937066
 30
-23.217517
 70
    64
  0
VERTEX
  5
1D8A
100
AcDbEntity
  8
V0-ZBYTEK
  6
CONTINUOUS
 48
3.0
100
AcDbVertex
100
AcDbPolygonMeshVertex
 10
43.5
 20
-239.386659
 30
-26.450336
 70
    64
  0
VERTEX
  5
1D8B
100
AcDbEntity
  8
V0-ZBYTEK
  6
CONTINUOUS
 48
3.0
100
AcDbVertex
100
AcDbPolygonMeshVertex
 10
44.0
 20
-239.386659
 30
-26.450336
 70
    64
  0
VERTEX
  5
1D8C
100
AcDbEntity
  8
V0-ZBYTEK
  6
CONTINUOUS
 48
3.0
100
AcDbVertex
100
AcDbPolygonMeshVertex
 10
44.0
 20
-234.937066
 30
-23.217517
 70
    64
  0
VERTEX
  5
1D8D
100
AcDbEntity
  8
V0-ZBYTEK
  6
CONTINUOUS
 48
3.0
100
AcDbVertex
100
AcDbPolygonMeshVertex
 10
55.0
 20
-234.937066
 30
-23.217517
 70
    64
  0
VERTEX
  5
1D8E
100
AcDbEntity
  8
V0-ZBYTEK
  6
CONTINUOUS
 48
3.0
100
AcDbVertex
100
AcDbPolygonMeshVertex
 10
55.0
 20
-202.980895
 30
0.0
 70
    64
  0
VERTEX
  5
1D8F
100
AcDbEntity
  8
V0-ZBYTEK
  6
CONTINUOUS
 48
3.0
100
AcDbVertex
100
AcDbPolygonMeshVertex
 10
52.966022
 20
-202.980895
 30
0.0
 70
    64
  0
VERTEX
  5
1D90
100
AcDbEntity
  8
V0-ZBYTEK
  6
CONTINUOUS
 48
3.0
100
AcDbVertex
100
AcDbPolygonMeshVertex
 10
-55.0
 20
-202.980895
 30
0.0
 70
    64
  0
VERTEX
  5
1D91
100
AcDbEntity
  8
V0-ZBYTEK
  6
CONTINUOUS
 48
3.0
100
AcDbVertex
100
AcDbPolygonMeshVertex
 10
-55.0
 20
-222.730895
 30
-34.208003
 70
    64
  0
VERTEX
  5
1D92
100
AcDbEntity
  8
V0-ZBYTEK
  6
CONTINUOUS
 48
3.0
100
AcDbVertex
100
AcDbPolygonMeshVertex
 10
-44.0
 20
-222.730895
 30
-34.208003
 70
    64
  0
VERTEX
  5
1D93
100
AcDbEntity
  8
V0-ZBYTEK
  6
CONTINUOUS
 48
3.0
100
AcDbVertex
100
AcDbPolygonMeshVertex
 10
-44.0
 20
-225.480895
 30
-38.971143
 70
    64
  0
VERTEX
  5
1D94
100
AcDbEntity
  8
V0-ZBYTEK
  6
CONTINUOUS
 48
3.0
100
AcDbVertex
100
AcDbPolygonMeshVertex
 10
-43.5
 20
-225.480895
 30
-38.971143
 70
    64
  0
VERTEX
  5
1D95
100
AcDbEntity
  8
V0-ZBYTEK
  6
CONTINUOUS
 48
3.0
100
AcDbVertex
100
AcDbPolygonMeshVertex
 10
-43.5
 20
-222.730895
 30
-34.208003
 70
    64
  0
VERTEX
  5
1D96
100
AcDbEntity
  8
V0-ZBYTEK
  6
CONTINUOUS
 48
3.0
100
AcDbVertex
100
AcDbPolygonMeshVertex
 10
-35.0
 20
-222.730895
 30
-34.208003
 70
    64
  0
VERTEX
  5
1D97
100
AcDbEntity
  8
V0-ZBYTEK
  6
CONTINUOUS
 48
3.0
100
AcDbVertex
100
AcDbPolygonMeshVertex
 10
-35.0
 20
-223.480895
 30
-35.507042
 70
    64
  0
VERTEX
  5
1D98
100
AcDbEntity
  8
V0-ZBYTEK
  6
CONTINUOUS
 48
3.0
100
AcDbVertex
100
AcDbPolygonMeshVertex
 10
-25.0
 20
-223.480895
 30
-35.507042
 70
    64
  0
VERTEX
  5
1D99
100
AcDbEntity
  8
V0-ZBYTEK
  6
CONTINUOUS
 48
3.0
100
AcDbVertex
100
AcDbPolygonMeshVertex
 10
-25.0
 20
-223.980895
 30
-36.373067
 70
    64
  0
VERTEX
  5
1D9A
100
AcDbEntity
  8
V0-ZBYTEK
  6
CONTINUOUS
 48
3.0
100
AcDbVertex
100
AcDbPolygonMeshVertex
 10
-22.0
 20
-223.980895
 30
-36.373067
 70
    64
  0
VERTEX
  5
1D9B
100
AcDbEntity
  8
V0-ZBYTEK
  6
CONTINUOUS
 48
3.0
100
AcDbVertex
100
AcDbPolygonMeshVertex
 10
-22.0
 20
-223.480895
 30
-35.507042
 70
    64
  0
VERTEX
  5
1D9C
100
AcDbEntity
  8
V0-ZBYTEK
  6
CONTINUOUS
 48
3.0
100
AcDbVertex
100
AcDbPolygonMeshVertex
 10
-5.0
 20
-223.480895
 30
-35.507042
 70
    64
  0
VERTEX
  5
1D9D
100
AcDbEntity
  8
V0-ZBYTEK
  6
CONTINUOUS
 48
3.0
100
AcDbVertex
100
AcDbPolygonMeshVertex
 10
-5.0
 20
-234.230895
 30
-54.126588
 70
    64
  0
VERTEX
  5
1D9E
100
AcDbEntity
  8
V0-ZBYTEK
  6
CONTINUOUS
 48
3.0
100
AcDbVertex
100
AcDbPolygonMeshVertex
 10
5.0
 20
-234.230895
 30
-54.126588
 70
    64
  0
VERTEX
  5
1D9F
100
AcDbEntity
  8
V0-ZBYTEK
  6
CONTINUOUS
 48
3.0
100
AcDbVertex
100
AcDbPolygonMeshVertex
 10
5.0
 20
-223.480895
 30
-35.507042
 70
    64
  0
VERTEX
  5
1DA0
100
AcDbEntity
  8
V0-ZBYTEK
  6
CONTINUOUS
 48
3.0
100
AcDbVertex
100
AcDbPolygonMeshVertex
 10
22.0
 20
-223.480895
 30
-35.507042
 70
    64
  0
VERTEX
  5
1DA1
100
AcDbEntity
  8
V0-ZBYTEK
  6
CONTINUOUS
 48
3.0
100
AcDbVertex
100
AcDbPolygonMeshVertex
 10
22.0
 20
-223.980895
 30
-36.373067
 70
    64
  0
VERTEX
  5
1DA2
100
AcDbEntity
  8
V0-ZBYTEK
  6
CONTINUOUS
 48
3.0
100
AcDbVertex
100
AcDbPolygonMeshVertex
 10
25.0
 20
-223.980895
 30
-36.373067
 70
    64
  0
VERTEX
  5
1DA3
100
AcDbEntity
  8
V0-ZBYTEK
  6
CONTINUOUS
 48
3.0
100
AcDbVertex
100
AcDbPolygonMeshVertex
 10
25.0
 20
-223.480895
 30
-35.507042
 70
    64
  0
VERTEX
  5
1DA4
100
AcDbEntity
  8
V0-ZBYTEK
  6
CONTINUOUS
 48
3.0
100
AcDbVertex
100
AcDbPolygonMeshVertex
 10
35.0
 20
-223.480895
 30
-35.507042
 70
    64
  0
VERTEX
  5
1DA5
100
AcDbEntity
  8
V0-ZBYTEK
  6
CONTINUOUS
 48
3.0
100
AcDbVertex
100
AcDbPolygonMeshVertex
 10
35.0
 20
-222.730895
 30
-34.208003
 70
    64
  0
VERTEX
  5
1DA6
100
AcDbEntity
  8
V0-ZBYTEK
  6
CONTINUOUS
 48
3.0
100
AcDbVertex
100
AcDbPolygonMeshVertex
 10
43.5
 20
-222.730895
 30
-34.208003
 70
    64
  0
VERTEX
  5
1DA7
100
AcDbEntity
  8
V0-ZBYTEK
  6
CONTINUOUS
 48
3.0
100
AcDbVertex
100
AcDbPolygonMeshVertex
 10
43.5
 20
-225.480895
 30
-38.971143
 70
    64
  0
VERTEX
  5
1DA8
100
AcDbEntity
  8
V0-ZBYTEK
  6
CONTINUOUS
 48
3.0
100
AcDbVertex
100
AcDbPolygonMeshVertex
 10
44.0
 20
-225.480895
 30
-38.971143
 70
    64
  0
VERTEX
  5
1DA9
100
AcDbEntity
  8
V0-ZBYTEK
  6
CONTINUOUS
 48
3.0
100
AcDbVertex
100
AcDbPolygonMeshVertex
 10
44.0
 20
-222.730895
 30
-34.208003
 70
    64
  0
VERTEX
  5
1DAA
100
AcDbEntity
  8
V0-ZBYTEK
  6
CONTINUOUS
 48
3.0
100
AcDbVertex
100
AcDbPolygonMeshVertex
 10
55.0
 20
-222.730895
 30
-34.208003
 70
    64
  0
VERTEX
  5
1DAB
100
AcDbEntity
  8
V0-ZBYTEK
  6
CONTINUOUS
 48
3.0
100
AcDbVertex
100
AcDbPolygonMeshVertex
 10
55.0
 20
-202.980895
 30
0.0
 70
    64
  0
VERTEX
  5
1DAC
100
AcDbEntity
  8
V0-ZBYTEK
  6
CONTINUOUS
 48
3.0
100
AcDbVertex
100
AcDbPolygonMeshVertex
 10
52.966022
 20
-202.980895
 30
0.0
 70
    64
  0
VERTEX
  5
1DAD
100
AcDbEntity
  8
V0-ZBYTEK
  6
CONTINUOUS
 48
3.0
100
AcDbVertex
100
AcDbPolygonMeshVertex
 10
-55.0
 20
-202.980895
 30
0.0
 70
    64
  0
VERTEX
  5
1DAE
100
AcDbEntity
  8
V0-ZBYTEK
  6
CONTINUOUS
 48
3.0
100
AcDbVertex
100
AcDbPolygonMeshVertex
 10
-55.0
 20
-207.109769
 30
-39.283615
 70
    64
  0
VERTEX
  5
1DAF
100
AcDbEntity
  8
V0-ZBYTEK
  6
CONTINUOUS
 48
3.0
100
AcDbVertex
100
AcDbPolygonMeshVertex
 10
-44.0
 20
-207.109769
 30
-39.283615
 70
    64
  0
VERTEX
  5
1DB0
100
AcDbEntity
  8
V0-ZBYTEK
  6
CONTINUOUS
 48
3.0
100
AcDbVertex
100
AcDbPolygonMeshVertex
 10
-44.0
 20
-207.684675
 30
-44.753485
 70
    64
  0
VERTEX
  5
1DB1
100
AcDbEntity
  8
V0-ZBYTEK
  6
CONTINUOUS
 48
3.0
100
AcDbVertex
100
AcDbPolygonMeshVertex
 10
-43.5
 20
-207.684675
 30
-44.753485
 70
    64
  0
VERTEX
  5
1DB2
100
AcDbEntity
  8
V0-ZBYTEK
  6
CONTINUOUS
 48
3.0
100
AcDbVertex
100
AcDbPolygonMeshVertex
 10
-43.5
 20
-207.109769
 30
-39.283615
 70
    64
  0
VERTEX
  5
1DB3
100
AcDbEntity
  8
V0-ZBYTEK
  6
CONTINUOUS
 48
3.0
100
AcDbVertex
100
AcDbPolygonMeshVertex
 10
-35.0
 20
-207.109769
 30
-39.283615
 70
    64
  0
VERTEX
  5
1DB4
100
AcDbEntity
  8
V0-ZBYTEK
  6
CONTINUOUS
 48
3.0
100
AcDbVertex
100
AcDbPolygonMeshVertex
 10
-35.0
 20
-207.266562
 30
-40.775398
 70
    64
  0
VERTEX
  5
1DB5
100
AcDbEntity
  8
V0-ZBYTEK
  6
CONTINUOUS
 48
3.0
100
AcDbVertex
100
AcDbPolygonMeshVertex
 10
-25.0
 20
-207.266562
 30
-40.775398
 70
    64
  0
VERTEX
  5
1DB6
100
AcDbEntity
  8
V0-ZBYTEK
  6
CONTINUOUS
 48
3.0
100
AcDbVertex
100
AcDbPolygonMeshVertex
 10
-25.0
 20
-207.37109
 30
-41.76992
 70
    64
  0
VERTEX
  5
1DB7
100
AcDbEntity
  8
V0-ZBYTEK
  6
CONTINUOUS
 48
3.0
100
AcDbVertex
100
AcDbPolygonMeshVertex
 10
-22.0
 20
-207.37109
 30
-41.76992
 70
    64
  0
VERTEX
  5
1DB8
100
AcDbEntity
  8
V0-ZBYTEK
  6
CONTINUOUS
 48
3.0
100
AcDbVertex
100
AcDbPolygonMeshVertex
 10
-22.0
 20
-207.266562
 30
-40.775398
 70
    64
  0
VERTEX
  5
1DB9
100
AcDbEntity
  8
V0-ZBYTEK
  6
CONTINUOUS
 48
3.0
100
AcDbVertex
100
AcDbPolygonMeshVertex
 10
-5.0
 20
-207.266562
 30
-40.775398
 70
    64
  0
VERTEX
  5
1DBA
100
AcDbEntity
  8
V0-ZBYTEK
  6
CONTINUOUS
 48
3.0
100
AcDbVertex
100
AcDbPolygonMeshVertex
 10
-5.0
 20
-209.513924
 30
-62.157618
 70
    64
  0
VERTEX
  5
1DBB
100
AcDbEntity
  8
V0-ZBYTEK
  6
CONTINUOUS
 48
3.0
100
AcDbVertex
100
AcDbPolygonMeshVertex
 10
5.0
 20
-209.513924
 30
-62.157618
 70
    64
  0
VERTEX
  5
1DBC
100
AcDbEntity
  8
V0-ZBYTEK
  6
CONTINUOUS
 48
3.0
100
AcDbVertex
100
AcDbPolygonMeshVertex
 10
5.0
 20
-207.266562
 30
-40.775398
 70
    64
  0
VERTEX
  5
1DBD
100
AcDbEntity
  8
V0-ZBYTEK
  6
CONTINUOUS
 48
3.0
100
AcDbVertex
100
AcDbPolygonMeshVertex
 10
22.0
 20
-207.266562
 30
-40.775398
 70
    64
  0
VERTEX
  5
1DBE
100
AcDbEntity
  8
V0-ZBYTEK
  6
CONTINUOUS
 48
3.0
100
AcDbVertex
100
AcDbPolygonMeshVertex
 10
22.0
 20
-207.37109
 30
-41.76992
 70
    64
  0
VERTEX
  5
1DBF
100
AcDbEntity
  8
V0-ZBYTEK
  6
CONTINUOUS
 48
3.0
100
AcDbVertex
100
AcDbPolygonMeshVertex
 10
25.0
 20
-207.37109
 30
-41.76992
 70
    64
  0
VERTEX
  5
1DC0
100
AcDbEntity
  8
V0-ZBYTEK
  6
CONTINUOUS
 48
3.0
100
AcDbVertex
100
AcDbPolygonMeshVertex
 10
25.0
 20
-207.266562
 30
-40.775398
 70
    64
  0
VERTEX
  5
1DC1
100
AcDbEntity
  8
V0-ZBYTEK
  6
CONTINUOUS
 48
3.0
100
AcDbVertex
100
AcDbPolygonMeshVertex
 10
35.0
 20
-207.266562
 30
-40.775398
 70
    64
  0
VERTEX
  5
1DC2
100
AcDbEntity
  8
V0-ZBYTEK
  6
CONTINUOUS
 48
3.0
100
AcDbVertex
100
AcDbPolygonMeshVertex
 10
35.0
 20
-207.109769
 30
-39.283615
 70
    64
  0
VERTEX
  5
1DC3
100
AcDbEntity
  8
V0-ZBYTEK
  6
CONTINUOUS
 48
3.0
100
AcDbVertex
100
AcDbPolygonMeshVertex
 10
43.5
 20
-207.109769
 30
-39.283615
 70
    64
  0
VERTEX
  5
1DC4
100
AcDbEntity
  8
V0-ZBYTEK
  6
CONTINUOUS
 48
3.0
100
AcDbVertex
100
AcDbPolygonMeshVertex
 10
43.5
 20
-207.684675
 30
-44.753485
 70
    64
  0
VERTEX
  5
1DC5
100
AcDbEntity
  8
V0-ZBYTEK
  6
CONTINUOUS
 48
3.0
100
AcDbVertex
100
AcDbPolygonMeshVertex
 10
44.0
 20
-207.684675
 30
-44.753485
 70
    64
  0
VERTEX
  5
1DC6
100
AcDbEntity
  8
V0-ZBYTEK
  6
CONTINUOUS
 48
3.0
100
AcDbVertex
100
AcDbPolygonMeshVertex
 10
44.0
 20
-207.109769
 30
-39.283615
 70
    64
  0
VERTEX
  5
1DC7
100
AcDbEntity
  8
V0-ZBYTEK
  6
CONTINUOUS
 48
3.0
100
AcDbVertex
100
AcDbPolygonMeshVertex
 10
55.0
 20
-207.109769
 30
-39.283615
 70
    64
  0
VERTEX
  5
1DC8
100
AcDbEntity
  8
V0-ZBYTEK
  6
CONTINUOUS
 48
3.0
100
AcDbVertex
100
AcDbPolygonMeshVertex
 10
55.0
 20
-202.980895
 30
0.0
 70
    64
  0
VERTEX
  5
1DC9
100
AcDbEntity
  8
V0-ZBYTEK
  6
CONTINUOUS
 48
3.0
100
AcDbVertex
100
AcDbPolygonMeshVertex
 10
52.966022
 20
-202.980895
 30
0.0
 70
    64
  0
VERTEX
  5
1DCA
100
AcDbEntity
  8
V0-ZBYTEK
  6
CONTINUOUS
 48
3.0
100
AcDbVertex
100
AcDbPolygonMeshVertex
 10
-55.0
 20
-202.980895
 30
0.0
 70
    64
  0
VERTEX
  5
1DCB
100
AcDbEntity
  8
V0-ZBYTEK
  6
CONTINUOUS
 48
3.0
100
AcDbVertex
100
AcDbPolygonMeshVertex
 10
-55.0
 20
-190.774723
 30
-37.566732
 70
    64
  0
VERTEX
  5
1DCC
100
AcDbEntity
  8
V0-ZBYTEK
  6
CONTINUOUS
 48
3.0
100
AcDbVertex
100
AcDbPolygonMeshVertex
 10
-44.0
 20
-190.774723
 30
-37.566732
 70
    64
  0
VERTEX
  5
1DCD
100
AcDbEntity
  8
V0-ZBYTEK
  6
CONTINUOUS
 48
3.0
100
AcDbVertex
100
AcDbPolygonMeshVertex
 10
-44.0
 20
-189.07513
 30
-42.797543
 70
    64
  0
VERTEX
  5
1DCE
100
AcDbEntity
  8
V0-ZBYTEK
  6
CONTINUOUS
 48
3.0
100
AcDbVertex
100
AcDbPolygonMeshVertex
 10
-43.5
 20
-189.07513
 30
-42.797543
 70
    64
  0
VERTEX
  5
1DCF
100
AcDbEntity
  8
V0-ZBYTEK
  6
CONTINUOUS
 48
3.0
100
AcDbVertex
100
AcDbPolygonMeshVertex
 10
-43.5
 20
-190.774723
 30
-37.566732
 70
    64
  0
VERTEX
  5
1DD0
100
AcDbEntity
  8
V0-ZBYTEK
  6
CONTINUOUS
 48
3.0
100
AcDbVertex
100
AcDbPolygonMeshVertex
 10
-35.0
 20
-190.774723
 30
-37.566732
 70
    64
  0
VERTEX
  5
1DD1
100
AcDbEntity
  8
V0-ZBYTEK
  6
CONTINUOUS
 48
3.0
100
AcDbVertex
100
AcDbPolygonMeshVertex
 10
-35.0
 20
-190.311198
 30
-38.993317
 70
    64
  0
VERTEX
  5
1DD2
100
AcDbEntity
  8
V0-ZBYTEK
  6
CONTINUOUS
 48
3.0
100
AcDbVertex
100
AcDbPolygonMeshVertex
 10
-25.0
 20
-190.311198
 30
-38.993317
 70
    64
  0
VERTEX
  5
1DD3
100
AcDbEntity
  8
V0-ZBYTEK
  6
CONTINUOUS
 48
3.0
100
AcDbVertex
100
AcDbPolygonMeshVertex
 10
-25.0
 20
-190.002181
 30
-39.944374
 70
    64
  0
VERTEX
  5
1DD4
100
AcDbEntity
  8
V0-ZBYTEK
  6
CONTINUOUS
 48
3.0
100
AcDbVertex
100
AcDbPolygonMeshVertex
 10
-22.0
 20
-190.002181
 30
-39.944374
 70
    64
  0
VERTEX
  5
1DD5
100
AcDbEntity
  8
V0-ZBYTEK
  6
CONTINUOUS
 48
3.0
100
AcDbVertex
100
AcDbPolygonMeshVertex
 10
-22.0
 20
-190.311198
 30
-38.993317
 70
    64
  0
VERTEX
  5
1DD6
100
AcDbEntity
  8
V0-ZBYTEK
  6
CONTINUOUS
 48
3.0
100
AcDbVertex
100
AcDbPolygonMeshVertex
 10
-5.0
 20
-190.311198
 30
-38.993317
 70
    64
  0
VERTEX
  5
1DD7
100
AcDbEntity
  8
V0-ZBYTEK
  6
CONTINUOUS
 48
3.0
100
AcDbVertex
100
AcDbPolygonMeshVertex
 10
-5.0
 20
-183.667332
 30
-59.441032
 70
    64
  0
VERTEX
  5
1DD8
100
AcDbEntity
  8
V0-ZBYTEK
  6
CONTINUOUS
 48
3.0
100
AcDbVertex
100
AcDbPolygonMeshVertex
 10
5.0
 20
-183.667332
 30
-59.441032
 70
    64
  0
VERTEX
  5
1DD9
100
AcDbEntity
  8
V0-ZBYTEK
  6
CONTINUOUS
 48
3.0
100
AcDbVertex
100
AcDbPolygonMeshVertex
 10
5.0
 20
-190.311198
 30
-38.993317
 70
    64
  0
VERTEX
  5
1DDA
100
AcDbEntity
  8
V0-ZBYTEK
  6
CONTINUOUS
 48
3.0
100
AcDbVertex
100
AcDbPolygonMeshVertex
 10
22.0
 20
-190.311198
 30
-38.993317
 70
    64
  0
VERTEX
  5
1DDB
100
AcDbEntity
  8
V0-ZBYTEK
  6
CONTINUOUS
 48
3.0
100
AcDbVertex
100
AcDbPolygonMeshVertex
 10
22.0
 20
-190.002181
 30
-39.944374
 70
    64
  0
VERTEX
  5
1DDC
100
AcDbEntity
  8
V0-ZBYTEK
  6
CONTINUOUS
 48
3.0
100
AcDbVertex
100
AcDbPolygonMeshVertex
 10
25.0
 20
-190.002181
 30
-39.944374
 70
    64
  0
VERTEX
  5
1DDD
100
AcDbEntity
  8
V0-ZBYTEK
  6
CONTINUOUS
 48
3.0
100
AcDbVertex
100
AcDbPolygonMeshVertex
 10
25.0
 20
-190.311198
 30
-38.993317
 70
    64
  0
VERTEX
  5
1DDE
100
AcDbEntity
  8
V0-ZBYTEK
  6
CONTINUOUS
 48
3.0
100
AcDbVertex
100
AcDbPolygonMeshVertex
 10
35.0
 20
-190.311198
 30
-38.993317
 70
    64
  0
VERTEX
  5
1DDF
100
AcDbEntity
  8
V0-ZBYTEK
  6
CONTINUOUS
 48
3.0
100
AcDbVertex
100
AcDbPolygonMeshVertex
 10
35.0
 20
-190.774723
 30
-37.566732
 70
    64
  0
VERTEX
  5
1DE0
100
AcDbEntity
  8
V0-ZBYTEK
  6
CONTINUOUS
 48
3.0
100
AcDbVertex
100
AcDbPolygonMeshVertex
 10
43.5
 20
-190.774723
 30
-37.566732
 70
    64
  0
VERTEX
  5
1DE1
100
AcDbEntity
  8
V0-ZBYTEK
  6
CONTINUOUS
 48
3.0
100
AcDbVertex
100
AcDbPolygonMeshVertex
 10
43.5
 20
-189.07513
 30
-42.797543
 70
    64
  0
VERTEX
  5
1DE2
100
AcDbEntity
  8
V0-ZBYTEK
  6
CONTINUOUS
 48
3.0
100
AcDbVertex
100
AcDbPolygonMeshVertex
 10
44.0
 20
-189.07513
 30
-42.797543
 70
    64
  0
VERTEX
  5
1DE3
100
AcDbEntity
  8
V0-ZBYTEK
  6
CONTINUOUS
 48
3.0
100
AcDbVertex
100
AcDbPolygonMeshVertex
 10
44.0
 20
-190.774723
 30
-37.566732
 70
    64
  0
VERTEX
  5
1DE4
100
AcDbEntity
  8
V0-ZBYTEK
  6
CONTINUOUS
 48
3.0
100
AcDbVertex
100
AcDbPolygonMeshVertex
 10
55.0
 20
-190.774723
 30
-37.566732
 70
    64
  0
VERTEX
  5
1DE5
100
AcDbEntity
  8
V0-ZBYTEK
  6
CONTINUOUS
 48
3.0
100
AcDbVertex
100
AcDbPolygonMeshVertex
 10
55.0
 20
-202.980895
 30
0.0
 70
    64
  0
VERTEX
  5
1DE6
100
AcDbEntity
  8
V0-ZBYTEK
  6
CONTINUOUS
 48
3.0
100
AcDbVertex
100
AcDbPolygonMeshVertex
 10
52.966022
 20
-202.980895
 30
0.0
 70
    64
  0
VERTEX
  5
1DE7
100
AcDbEntity
  8
V0-ZBYTEK
  6
CONTINUOUS
 48
3.0
100
AcDbVertex
100
AcDbPolygonMeshVertex
 10
-55.0
 20
-202.980895
 30
0.0
 70
    64
  0
VERTEX
  5
1DE8
100
AcDbEntity
  8
V0-ZBYTEK
  6
CONTINUOUS
 48
3.0
100
AcDbVertex
100
AcDbPolygonMeshVertex
 10
-55.0
 20
-176.550236
 30
-29.354221
 70
    64
  0
VERTEX
  5
1DE9
100
AcDbEntity
  8
V0-ZBYTEK
  6
CONTINUOUS
 48
3.0
100
AcDbVertex
100
AcDbPolygonMeshVertex
 10
-44.0
 20
-176.550236
 30
-29.354221
 70
    64
  0
VERTEX
  5
1DEA
100
AcDbEntity
  8
V0-ZBYTEK
  6
CONTINUOUS
 48
3.0
100
AcDbVertex
100
AcDbPolygonMeshVertex
 10
-44.0
 20
-172.870017
 30
-33.441517
 70
    64
  0
VERTEX
  5
1DEB
100
AcDbEntity
  8
V0-ZBYTEK
  6
CONTINUOUS
 48
3.0
100
AcDbVertex
100
AcDbPolygonMeshVertex
 10
-43.5
 20
-172.870017
 30
-33.441517
 70
    64
  0
VERTEX
  5
1DEC
100
AcDbEntity
  8
V0-ZBYTEK
  6
CONTINUOUS
 48
3.0
100
AcDbVertex
100
AcDbPolygonMeshVertex
 10
-43.5
 20
-176.550236
 30
-29.354221
 70
    64
  0
VERTEX
  5
1DED
100
AcDbEntity
  8
V0-ZBYTEK
  6
CONTINUOUS
 48
3.0
100
AcDbVertex
100
AcDbPolygonMeshVertex
 10
-35.0
 20
-176.550236
 30
-29.354221
 70
    64
  0
VERTEX
  5
1DEE
100
AcDbEntity
  8
V0-ZBYTEK
  6
CONTINUOUS
 48
3.0
100
AcDbVertex
100
AcDbPolygonMeshVertex
 10
-35.0
 20
-175.54654
 30
-30.468938
 70
    64
  0
VERTEX
  5
1DEF
100
AcDbEntity
  8
V0-ZBYTEK
  6
CONTINUOUS
 48
3.0
100
AcDbVertex
100
AcDbPolygonMeshVertex
 10
-25.0
 20
-175.54654
 30
-30.468938
 70
    64
  0
VERTEX
  5
1DF0
100
AcDbEntity
  8
V0-ZBYTEK
  6
CONTINUOUS
 48
3.0
100
AcDbVertex
100
AcDbPolygonMeshVertex
 10
-25.0
 20
-174.877409
 30
-31.212083
 70
    64
  0
VERTEX
  5
1DF1
100
AcDbEntity
  8
V0-ZBYTEK
  6
CONTINUOUS
 48
3.0
100
AcDbVertex
100
AcDbPolygonMeshVertex
 10
-22.0
 20
-174.877409
 30
-31.212083
 70
    64
  0
VERTEX
  5
1DF2
100
AcDbEntity
  8
V0-ZBYTEK
  6
CONTINUOUS
 48
3.0
100
AcDbVertex
100
AcDbPolygonMeshVertex
 10
-22.0
 20
-175.54654
 30
-30.468938
 70
    64
  0
VERTEX
  5
1DF3
100
AcDbEntity
  8
V0-ZBYTEK
  6
CONTINUOUS
 48
3.0
100
AcDbVertex
100
AcDbPolygonMeshVertex
 10
-5.0
 20
-175.54654
 30
-30.468938
 70
    64
  0
VERTEX
  5
1DF4
100
AcDbEntity
  8
V0-ZBYTEK
  6
CONTINUOUS
 48
3.0
100
AcDbVertex
100
AcDbPolygonMeshVertex
 10
-5.0
 20
-161.160232
 30
-46.446552
 70
    64
  0
VERTEX
  5
1DF5
100
AcDbEntity
  8
V0-ZBYTEK
  6
CONTINUOUS
 48
3.0
100
AcDbVertex
100
AcDbPolygonMeshVertex
 10
5.0
 20
-161.160232
 30
-46.446552
 70
    64
  0
VERTEX
  5
1DF6
100
AcDbEntity
  8
V0-ZBYTEK
  6
CONTINUOUS
 48
3.0
100
AcDbVertex
100
AcDbPolygonMeshVertex
 10
5.0
 20
-175.54654
 30
-30.468938
 70
    64
  0
VERTEX
  5
1DF7
100
AcDbEntity
  8
V0-ZBYTEK
  6
CONTINUOUS
 48
3.0
100
AcDbVertex
100
AcDbPolygonMeshVertex
 10
22.0
 20
-175.54654
 30
-30.468938
 70
    64
  0
VERTEX
  5
1DF8
100
AcDbEntity
  8
V0-ZBYTEK
  6
CONTINUOUS
 48
3.0
100
AcDbVertex
100
AcDbPolygonMeshVertex
 10
22.0
 20
-174.877409
 30
-31.212083
 70
    64
  0
VERTEX
  5
1DF9
100
AcDbEntity
  8
V0-ZBYTEK
  6
CONTINUOUS
 48
3.0
100
AcDbVertex
100
AcDbPolygonMeshVertex
 10
25.0
 20
-174.877409
 30
-31.212083
 70
    64
  0
VERTEX
  5
1DFA
100
AcDbEntity
  8
V0-ZBYTEK
  6
CONTINUOUS
 48
3.0
100
AcDbVertex
100
AcDbPolygonMeshVertex
 10
25.0
 20
-175.54654
 30
-30.468938
 70
    64
  0
VERTEX
  5
1DFB
100
AcDbEntity
  8
V0-ZBYTEK
  6
CONTINUOUS
 48
3.0
100
AcDbVertex
100
AcDbPolygonMeshVertex
 10
35.0
 20
-175.54654
 30
-30.468938
 70
    64
  0
VERTEX
  5
1DFC
100
AcDbEntity
  8
V0-ZBYTEK
  6
CONTINUOUS
 48
3.0
100
AcDbVertex
100
AcDbPolygonMeshVertex
 10
35.0
 20
-176.550236
 30
-29.354221
 70
    64
  0
VERTEX
  5
1DFD
100
AcDbEntity
  8
V0-ZBYTEK
  6
CONTINUOUS
 48
3.0
100
AcDbVertex
100
AcDbPolygonMeshVertex
 10
43.5
 20
-176.550236
 30
-29.354221
 70
    64
  0
VERTEX
  5
1DFE
100
AcDbEntity
  8
V0-ZBYTEK
  6
CONTINUOUS
 48
3.0
100
AcDbVertex
100
AcDbPolygonMeshVertex
 10
43.5
 20
-172.870017
 30
-33.441517
 70
    64
  0
VERTEX
  5
1DFF
100
AcDbEntity
  8
V0-ZBYTEK
  6
CONTINUOUS
 48
3.0
100
AcDbVertex
100
AcDbPolygonMeshVertex
 10
44.0
 20
-172.870017
 30
-33.441517
 70
    64
  0
VERTEX
  5
1E00
100
AcDbEntity
  8
V0-ZBYTEK
  6
CONTINUOUS
 48
3.0
100
AcDbVertex
100
AcDbPolygonMeshVertex
 10
44.0
 20
-176.550236
 30
-29.354221
 70
    64
  0
VERTEX
  5
1E01
100
AcDbEntity
  8
V0-ZBYTEK
  6
CONTINUOUS
 48
3.0
100
AcDbVertex
100
AcDbPolygonMeshVertex
 10
55.0
 20
-176.550236
 30
-29.354221
 70
    64
  0
VERTEX
  5
1E02
100
AcDbEntity
  8
V0-ZBYTEK
  6
CONTINUOUS
 48
3.0
100
AcDbVertex
100
AcDbPolygonMeshVertex
 10
55.0
 20
-202.980895
 30
0.0
 70
    64
  0
VERTEX
  5
1E03
100
AcDbEntity
  8
V0-ZBYTEK
  6
CONTINUOUS
 48
3.0
100
AcDbVertex
100
AcDbPolygonMeshVertex
 10
52.966022
 20
-202.980895
 30
0.0
 70
    64
  0
VERTEX
  5
1E04
100
AcDbEntity
  8
V0-ZBYTEK
  6
CONTINUOUS
 48
3.0
100
AcDbVertex
100
AcDbPolygonMeshVertex
 10
-55.0
 20
-202.980895
 30
0.0
 70
    64
  0
VERTEX
  5
1E05
100
AcDbEntity
  8
V0-ZBYTEK
  6
CONTINUOUS
 48
3.0
100
AcDbVertex
100
AcDbPolygonMeshVertex
 10
-55.0
 20
-166.895849
 30
-16.066097
 70
    64
  0
VERTEX
  5
1E06
100
AcDbEntity
  8
V0-ZBYTEK
  6
CONTINUOUS
 48
3.0
100
AcDbVertex
100
AcDbPolygonMeshVertex
 10
-44.0
 20
-166.895849
 30
-16.066097
 70
    64
  0
VERTEX
  5
1E07
100
AcDbEntity
  8
V0-ZBYTEK
  6
CONTINUOUS
 48
3.0
100
AcDbVertex
100
AcDbPolygonMeshVertex
 10
-44.0
 20
-161.871349
 30
-18.303149
 70
    64
  0
VERTEX
  5
1E08
100
AcDbEntity
  8
V0-ZBYTEK
  6
CONTINUOUS
 48
3.0
100
AcDbVertex
100
AcDbPolygonMeshVertex
 10
-43.5
 20
-161.871349
 30
-18.303149
 70
    64
  0
VERTEX
  5
1E09
100
AcDbEntity
  8
V0-ZBYTEK
  6
CONTINUOUS
 48
3.0
100
AcDbVertex
100
AcDbPolygonMeshVertex
 10
-43.5
 20
-166.895849
 30
-16.066097
 70
    64
  0
VERTEX
  5
1E0A
100
AcDbEntity
  8
V0-ZBYTEK
  6
CONTINUOUS
 48
3.0
100
AcDbVertex
100
AcDbPolygonMeshVertex
 10
-35.0
 20
-166.895849
 30
-16.066097
 70
    64
  0
VERTEX
  5
1E0B
100
AcDbEntity
  8
V0-ZBYTEK
  6
CONTINUOUS
 48
3.0
100
AcDbVertex
100
AcDbPolygonMeshVertex
 10
-35.0
 20
-165.525531
 30
-16.676202
 70
    64
  0
VERTEX
  5
1E0C
100
AcDbEntity
  8
V0-ZBYTEK
  6
CONTINUOUS
 48
3.0
100
AcDbVertex
100
AcDbPolygonMeshVertex
 10
-25.0
 20
-165.525531
 30
-16.676202
 70
    64
  0
VERTEX
  5
1E0D
100
AcDbEntity
  8
V0-ZBYTEK
  6
CONTINUOUS
 48
3.0
100
AcDbVertex
100
AcDbPolygonMeshVertex
 10
-25.0
 20
-164.611985
 30
-17.082939
 70
    64
  0
VERTEX
  5
1E0E
100
AcDbEntity
  8
V0-ZBYTEK
  6
CONTINUOUS
 48
3.0
100
AcDbVertex
100
AcDbPolygonMeshVertex
 10
-22.0
 20
-164.611985
 30
-17.082939
 70
    64
  0
VERTEX
  5
1E0F
100
AcDbEntity
  8
V0-ZBYTEK
  6
CONTINUOUS
 48
3.0
100
AcDbVertex
100
AcDbPolygonMeshVertex
 10
-22.0
 20
-165.525531
 30
-16.676202
 70
    64
  0
VERTEX
  5
1E10
100
AcDbEntity
  8
V0-ZBYTEK
  6
CONTINUOUS
 48
3.0
100
AcDbVertex
100
AcDbPolygonMeshVertex
 10
-5.0
 20
-165.525531
 30
-16.676202
 70
    64
  0
VERTEX
  5
1E11
100
AcDbEntity
  8
V0-ZBYTEK
  6
CONTINUOUS
 48
3.0
100
AcDbVertex
100
AcDbPolygonMeshVertex
 10
-5.0
 20
-145.884303
 30
-25.42104
 70
    64
  0
VERTEX
  5
1E12
100
AcDbEntity
  8
V0-ZBYTEK
  6
CONTINUOUS
 48
3.0
100
AcDbVertex
100
AcDbPolygonMeshVertex
 10
5.0
 20
-145.884303
 30
-25.42104
 70
    64
  0
VERTEX
  5
1E13
100
AcDbEntity
  8
V0-ZBYTEK
  6
CONTINUOUS
 48
3.0
100
AcDbVertex
100
AcDbPolygonMeshVertex
 10
5.0
 20
-165.525531
 30
-16.676202
 70
    64
  0
VERTEX
  5
1E14
100
AcDbEntity
  8
V0-ZBYTEK
  6
CONTINUOUS
 48
3.0
100
AcDbVertex
100
AcDbPolygonMeshVertex
 10
22.0
 20
-165.525531
 30
-16.676202
 70
    64
  0
VERTEX
  5
1E15
100
AcDbEntity
  8
V0-ZBYTEK
  6
CONTINUOUS
 48
3.0
100
AcDbVertex
100
AcDbPolygonMeshVertex
 10
22.0
 20
-164.611985
 30
-17.082939
 70
    64
  0
VERTEX
  5
1E16
100
AcDbEntity
  8
V0-ZBYTEK
  6
CONTINUOUS
 48
3.0
100
AcDbVertex
100
AcDbPolygonMeshVertex
 10
25.0
 20
-164.611985
 30
-17.082939
 70
    64
  0
VERTEX
  5
1E17
100
AcDbEntity
  8
V0-ZBYTEK
  6
CONTINUOUS
 48
3.0
100
AcDbVertex
100
AcDbPolygonMeshVertex
 10
25.0
 20
-165.525531
 30
-16.676202
 70
    64
  0
VERTEX
  5
1E18
100
AcDbEntity
  8
V0-ZBYTEK
  6
CONTINUOUS
 48
3.0
100
AcDbVertex
100
AcDbPolygonMeshVertex
 10
35.0
 20
-165.525531
 30
-16.676202
 70
    64
  0
VERTEX
  5
1E19
100
AcDbEntity
  8
V0-ZBYTEK
  6
CONTINUOUS
 48
3.0
100
AcDbVertex
100
AcDbPolygonMeshVertex
 10
35.0
 20
-166.895849
 30
-16.066097
 70
    64
  0
VERTEX
  5
1E1A
100
AcDbEntity
  8
V0-ZBYTEK
  6
CONTINUOUS
 48
3.0
100
AcDbVertex
100
AcDbPolygonMeshVertex
 10
43.5
 20
-166.895849
 30
-16.066097
 70
    64
  0
VERTEX
  5
1E1B
100
AcDbEntity
  8
V0-ZBYTEK
  6
CONTINUOUS
 48
3.0
100
AcDbVertex
100
AcDbPolygonMeshVertex
 10
43.5
 20
-161.871349
 30
-18.303149
 70
    64
  0
VERTEX
  5
1E1C
100
AcDbEntity
  8
V0-ZBYTEK
  6
CONTINUOUS
 48
3.0
100
AcDbVertex
100
AcDbPolygonMeshVertex
 10
44.0
 20
-161.871349
 30
-18.303149
 70
    64
  0
VERTEX
  5
1E1D
100
AcDbEntity
  8
V0-ZBYTEK
  6
CONTINUOUS
 48
3.0
100
AcDbVertex
100
AcDbPolygonMeshVertex
 10
44.0
 20
-166.895849
 30
-16.066097
 70
    64
  0
VERTEX
  5
1E1E
100
AcDbEntity
  8
V0-ZBYTEK
  6
CONTINUOUS
 48
3.0
100
AcDbVertex
100
AcDbPolygonMeshVertex
 10
55.0
 20
-166.895849
 30
-16.066097
 70
    64
  0
VERTEX
  5
1E1F
100
AcDbEntity
  8
V0-ZBYTEK
  6
CONTINUOUS
 48
3.0
100
AcDbVertex
100
AcDbPolygonMeshVertex
 10
55.0
 20
-202.980895
 30
0.0
 70
    64
  0
VERTEX
  5
1E20
100
AcDbEntity
  8
V0-ZBYTEK
  6
CONTINUOUS
 48
3.0
100
AcDbVertex
100
AcDbPolygonMeshVertex
 10
52.966022
 20
-202.980895
 30
0.0
 70
    64
  0
SEQEND
  5
1E21
100
AcDbEntity
  8
V0-ZBYTEK
  6
CONTINUOUS
 48
3.0
  0
VIEWPORT
  5
22
100
AcDbEntity
 67
     1
  8
0
100
AcDbViewport
 10
261.517699
 20
148.5
 30
0.0
 40
523.035398
 41
297.0
 68
    -1
 69
     1
1001
ACAD
1000
MVIEW
1002
{
1070
    16
1010
0.0
1020
0.0
1030
0.0
1010
0.0
1020
0.0
1030
1.0
1040
0.0
1040
297.0
1040
261.517699
1040
148.5
1040
50.0
1040
0.0
1040
0.0
1070
     0
1070
   100
1070
     1
1070
     1
1070
     0
1070
     0
1070
     0
1070
     0
1040
0.0
1040
0.0
1040
0.0
1040
1.0
1040
1.0
1040
10.0
1040
10.0
1070
     0
1002
{
1002
}
1002
}
  0
ENDSEC
  0
SECTION
  2
OBJECTS
  0
DICTIONARY
  5
C
100
AcDbDictionary
  3
ACAD_GROUP
350
D
  3
ACAD_MLINESTYLE
350
E
  3
ACDBVARIABLEDICTIONARY
350
5D
  0
DICTIONARY
  5
D
102
{ACAD_REACTORS
330
C
102
}
100
AcDbDictionary
  0
DICTIONARY
  5
E
102
{ACAD_REACTORS
330
C
102
}
100
AcDbDictionary
  3
STANDARD
350
13
  0
DICTIONARY
  5
5D
102
{ACAD_REACTORS
330
C
102
}
100
AcDbDictionary
  3
DIMADEC
350
5E
  3
SORTENTS
350
3D8
  0
MLINESTYLE
  5
13
102
{ACAD_REACTORS
330
E
102
}
100
AcDbMlineStyle
  2
STANDARD
 70
     0
  3

 62
     0
 51
90.0
 52
90.0
 71
     2
 49
0.5
 62
   256
  6
BYLAYER
 49
-0.5
 62
   256
  6
BYLAYER
  0
DICTIONARYVAR
  5
5E
102
{ACAD_REACTORS
330
5D
102
}
100
DictionaryVariables
280
     0
  1
0
  0
DICTIONARYVAR
  5
3D8
102
{ACAD_REACTORS
330
5D
102
}
100
DictionaryVariables
280
     0
  1
96
  0
ENDSEC
  0
EOF
